ISO-10303-21;
HEADER;
FILE_DESCRIPTION((''),'2;1');
FILE_NAME('3102_0010_000','2020-01-31T',('presta_be4'),(''),
'CREO PARAMETRIC BY PTC INC, 2018360','CREO PARAMETRIC BY PTC INC, 2018360','');
FILE_SCHEMA(('CONFIG_CONTROL_DESIGN'));
ENDSEC;
DATA;
#2=DIRECTION('',(0.E0,1.E0,0.E0));
#3=VECTOR('',#2,3.42E0);
#4=CARTESIAN_POINT('',(4.E-1,-4.2E0,0.E0));
#5=LINE('',#4,#3);
#6=DIRECTION('',(0.E0,1.E0,0.E0));
#7=VECTOR('',#6,3.42E0);
#8=CARTESIAN_POINT('',(-4.E-1,-4.2E0,0.E0));
#9=LINE('',#8,#7);
#10=CARTESIAN_POINT('',(0.E0,-4.2E0,0.E0));
#11=DIRECTION('',(0.E0,1.E0,0.E0));
#12=DIRECTION('',(1.E0,0.E0,0.E0));
#13=AXIS2_PLACEMENT_3D('',#10,#11,#12);
#15=CARTESIAN_POINT('',(0.E0,-4.2E0,0.E0));
#16=DIRECTION('',(0.E0,-1.E0,0.E0));
#17=DIRECTION('',(1.E0,0.E0,0.E0));
#18=AXIS2_PLACEMENT_3D('',#15,#16,#17);
#20=CARTESIAN_POINT('',(0.E0,-7.8E-1,0.E0));
#21=DIRECTION('',(0.E0,-1.E0,0.E0));
#22=DIRECTION('',(1.E0,0.E0,0.E0));
#23=AXIS2_PLACEMENT_3D('',#20,#21,#22);
#25=CARTESIAN_POINT('',(0.E0,-7.8E-1,0.E0));
#26=DIRECTION('',(0.E0,1.E0,0.E0));
#27=DIRECTION('',(1.E0,0.E0,0.E0));
#28=AXIS2_PLACEMENT_3D('',#25,#26,#27);
#30=DIRECTION('',(0.E0,1.E0,0.E0));
#31=VECTOR('',#30,7.8E-1);
#32=CARTESIAN_POINT('',(7.5E-1,-7.8E-1,0.E0));
#33=LINE('',#32,#31);
#34=DIRECTION('',(0.E0,1.E0,0.E0));
#35=VECTOR('',#34,7.8E-1);
#36=CARTESIAN_POINT('',(-7.5E-1,-7.8E-1,0.E0));
#37=LINE('',#36,#35);
#38=CARTESIAN_POINT('',(0.E0,-7.8E-1,0.E0));
#39=DIRECTION('',(0.E0,1.E0,0.E0));
#40=DIRECTION('',(1.E0,0.E0,0.E0));
#41=AXIS2_PLACEMENT_3D('',#38,#39,#40);
#43=CARTESIAN_POINT('',(0.E0,-7.8E-1,0.E0));
#44=DIRECTION('',(0.E0,-1.E0,0.E0));
#45=DIRECTION('',(1.E0,0.E0,0.E0));
#46=AXIS2_PLACEMENT_3D('',#43,#44,#45);
#48=CARTESIAN_POINT('',(0.E0,0.E0,0.E0));
#49=DIRECTION('',(0.E0,-1.E0,0.E0));
#50=DIRECTION('',(1.E0,0.E0,0.E0));
#51=AXIS2_PLACEMENT_3D('',#48,#49,#50);
#53=CARTESIAN_POINT('',(0.E0,0.E0,0.E0));
#54=DIRECTION('',(0.E0,1.E0,0.E0));
#55=DIRECTION('',(1.E0,0.E0,0.E0));
#56=AXIS2_PLACEMENT_3D('',#53,#54,#55);
#58=DIRECTION('',(0.E0,1.E0,0.E0));
#59=VECTOR('',#58,1.26E1);
#60=CARTESIAN_POINT('',(6.E-1,0.E0,0.E0));
#61=LINE('',#60,#59);
#62=DIRECTION('',(0.E0,1.E0,0.E0));
#63=VECTOR('',#62,1.26E1);
#64=CARTESIAN_POINT('',(-6.E-1,0.E0,0.E0));
#65=LINE('',#64,#63);
#66=CARTESIAN_POINT('',(0.E0,0.E0,0.E0));
#67=DIRECTION('',(0.E0,1.E0,0.E0));
#68=DIRECTION('',(1.E0,0.E0,0.E0));
#69=AXIS2_PLACEMENT_3D('',#66,#67,#68);
#71=CARTESIAN_POINT('',(0.E0,0.E0,0.E0));
#72=DIRECTION('',(0.E0,-1.E0,0.E0));
#73=DIRECTION('',(1.E0,0.E0,0.E0));
#74=AXIS2_PLACEMENT_3D('',#71,#72,#73);
#76=CARTESIAN_POINT('',(0.E0,1.26E1,0.E0));
#77=DIRECTION('',(0.E0,-1.E0,0.E0));
#78=DIRECTION('',(1.E0,0.E0,0.E0));
#79=AXIS2_PLACEMENT_3D('',#76,#77,#78);
#81=DIRECTION('',(-7.071067811866E-1,7.071067811865E-1,0.E0));
#82=VECTOR('',#81,3.535533905933E-1);
#83=CARTESIAN_POINT('',(6.E-1,1.26E1,0.E0));
#84=LINE('',#83,#82);
#85=DIRECTION('',(7.071067811866E-1,7.071067811865E-1,0.E0));
#86=VECTOR('',#85,3.535533905933E-1);
#87=CARTESIAN_POINT('',(-6.E-1,1.26E1,0.E0));
#88=LINE('',#87,#86);
#89=CARTESIAN_POINT('',(0.E0,1.26E1,0.E0));
#90=DIRECTION('',(0.E0,1.E0,0.E0));
#91=DIRECTION('',(1.E0,0.E0,0.E0));
#92=AXIS2_PLACEMENT_3D('',#89,#90,#91);
#94=DIRECTION('',(0.E0,1.E0,0.E0));
#95=VECTOR('',#94,2.05E0);
#96=CARTESIAN_POINT('',(3.5E-1,1.285E1,0.E0));
#97=LINE('',#96,#95);
#98=DIRECTION('',(0.E0,1.E0,0.E0));
#99=VECTOR('',#98,2.05E0);
#100=CARTESIAN_POINT('',(-3.5E-1,1.285E1,0.E0));
#101=LINE('',#100,#99);
#102=CARTESIAN_POINT('',(0.E0,1.285E1,0.E0));
#103=DIRECTION('',(0.E0,1.E0,0.E0));
#104=DIRECTION('',(1.E0,0.E0,0.E0));
#105=AXIS2_PLACEMENT_3D('',#102,#103,#104);
#107=CARTESIAN_POINT('',(0.E0,1.285E1,0.E0));
#108=DIRECTION('',(0.E0,-1.E0,0.E0));
#109=DIRECTION('',(1.E0,0.E0,0.E0));
#110=AXIS2_PLACEMENT_3D('',#107,#108,#109);
#112=CARTESIAN_POINT('',(0.E0,1.49E1,0.E0));
#113=DIRECTION('',(0.E0,1.E0,0.E0));
#114=DIRECTION('',(1.E0,0.E0,0.E0));
#115=AXIS2_PLACEMENT_3D('',#112,#113,#114);
#117=CARTESIAN_POINT('',(0.E0,1.49E1,0.E0));
#118=DIRECTION('',(0.E0,-1.E0,0.E0));
#119=DIRECTION('',(1.E0,0.E0,0.E0));
#120=AXIS2_PLACEMENT_3D('',#117,#118,#119);
#122=CARTESIAN_POINT('',(4.E-1,-4.2E0,0.E0));
#123=CARTESIAN_POINT('',(4.E-1,-7.8E-1,0.E0));
#124=VERTEX_POINT('',#122);
#125=VERTEX_POINT('',#123);
#126=CARTESIAN_POINT('',(7.5E-1,-7.8E-1,0.E0));
#127=CARTESIAN_POINT('',(7.5E-1,0.E0,0.E0));
#128=VERTEX_POINT('',#126);
#129=VERTEX_POINT('',#127);
#130=CARTESIAN_POINT('',(6.E-1,0.E0,0.E0));
#131=CARTESIAN_POINT('',(6.E-1,1.26E1,0.E0));
#132=VERTEX_POINT('',#130);
#133=VERTEX_POINT('',#131);
#134=CARTESIAN_POINT('',(3.5E-1,1.285E1,0.E0));
#135=VERTEX_POINT('',#134);
#136=CARTESIAN_POINT('',(3.5E-1,1.49E1,0.E0));
#137=VERTEX_POINT('',#136);
#138=CARTESIAN_POINT('',(-4.E-1,-4.2E0,0.E0));
#139=CARTESIAN_POINT('',(-4.E-1,-7.8E-1,0.E0));
#140=VERTEX_POINT('',#138);
#141=VERTEX_POINT('',#139);
#142=CARTESIAN_POINT('',(-7.5E-1,-7.8E-1,0.E0));
#143=CARTESIAN_POINT('',(-7.5E-1,0.E0,0.E0));
#144=VERTEX_POINT('',#142);
#145=VERTEX_POINT('',#143);
#146=CARTESIAN_POINT('',(-6.E-1,0.E0,0.E0));
#147=CARTESIAN_POINT('',(-6.E-1,1.26E1,0.E0));
#148=VERTEX_POINT('',#146);
#149=VERTEX_POINT('',#147);
#150=CARTESIAN_POINT('',(-3.5E-1,1.285E1,0.E0));
#151=VERTEX_POINT('',#150);
#152=CARTESIAN_POINT('',(-3.5E-1,1.49E1,0.E0));
#153=VERTEX_POINT('',#152);
#154=CARTESIAN_POINT('',(0.E0,-4.2E0,0.E0));
#155=DIRECTION('',(0.E0,-1.E0,0.E0));
#156=DIRECTION('',(-1.E0,0.E0,0.E0));
#157=AXIS2_PLACEMENT_3D('',#154,#155,#156);
#158=PLANE('',#157);
#160=ORIENTED_EDGE('',*,*,#159,.T.);
#162=ORIENTED_EDGE('',*,*,#161,.F.);
#163=EDGE_LOOP('',(#160,#162));
#164=FACE_OUTER_BOUND('',#163,.F.);
#165=ADVANCED_FACE('',(#164),#158,.T.);
#166=CARTESIAN_POINT('',(0.E0,1.5855E1,0.E0));
#167=DIRECTION('',(0.E0,-1.E0,0.E0));
#168=DIRECTION('',(-1.E0,0.E0,0.E0));
#169=AXIS2_PLACEMENT_3D('',#166,#167,#168);
#170=CYLINDRICAL_SURFACE('',#169,4.E-1);
#172=ORIENTED_EDGE('',*,*,#171,.T.);
#174=ORIENTED_EDGE('',*,*,#173,.T.);
#176=ORIENTED_EDGE('',*,*,#175,.F.);
#177=ORIENTED_EDGE('',*,*,#159,.F.);
#178=EDGE_LOOP('',(#172,#174,#176,#177));
#179=FACE_OUTER_BOUND('',#178,.F.);
#180=ADVANCED_FACE('',(#179),#170,.T.);
#181=CARTESIAN_POINT('',(0.E0,1.5855E1,0.E0));
#182=DIRECTION('',(0.E0,-1.E0,0.E0));
#183=DIRECTION('',(-1.E0,0.E0,0.E0));
#184=AXIS2_PLACEMENT_3D('',#181,#182,#183);
#185=CYLINDRICAL_SURFACE('',#184,4.E-1);
#186=ORIENTED_EDGE('',*,*,#171,.F.);
#187=ORIENTED_EDGE('',*,*,#161,.T.);
#188=ORIENTED_EDGE('',*,*,#175,.T.);
#190=ORIENTED_EDGE('',*,*,#189,.F.);
#191=EDGE_LOOP('',(#186,#187,#188,#190));
#192=FACE_OUTER_BOUND('',#191,.F.);
#193=ADVANCED_FACE('',(#192),#185,.T.);
#194=CARTESIAN_POINT('',(0.E0,-7.8E-1,0.E0));
#195=DIRECTION('',(0.E0,-1.E0,0.E0));
#196=DIRECTION('',(-1.E0,0.E0,0.E0));
#197=AXIS2_PLACEMENT_3D('',#194,#195,#196);
#198=PLANE('',#197);
#200=ORIENTED_EDGE('',*,*,#199,.T.);
#202=ORIENTED_EDGE('',*,*,#201,.F.);
#203=EDGE_LOOP('',(#200,#202));
#204=FACE_OUTER_BOUND('',#203,.F.);
#205=ORIENTED_EDGE('',*,*,#189,.T.);
#206=ORIENTED_EDGE('',*,*,#173,.F.);
#207=EDGE_LOOP('',(#205,#206));
#208=FACE_BOUND('',#207,.F.);
#209=ADVANCED_FACE('',(#204,#208),#198,.T.);
#210=CARTESIAN_POINT('',(0.E0,1.5855E1,0.E0));
#211=DIRECTION('',(0.E0,-1.E0,0.E0));
#212=DIRECTION('',(-1.E0,0.E0,0.E0));
#213=AXIS2_PLACEMENT_3D('',#210,#211,#212);
#214=CYLINDRICAL_SURFACE('',#213,7.5E-1);
#216=ORIENTED_EDGE('',*,*,#215,.T.);
#218=ORIENTED_EDGE('',*,*,#217,.T.);
#220=ORIENTED_EDGE('',*,*,#219,.F.);
#221=ORIENTED_EDGE('',*,*,#199,.F.);
#222=EDGE_LOOP('',(#216,#218,#220,#221));
#223=FACE_OUTER_BOUND('',#222,.F.);
#224=ADVANCED_FACE('',(#223),#214,.T.);
#225=CARTESIAN_POINT('',(0.E0,1.5855E1,0.E0));
#226=DIRECTION('',(0.E0,-1.E0,0.E0));
#227=DIRECTION('',(-1.E0,0.E0,0.E0));
#228=AXIS2_PLACEMENT_3D('',#225,#226,#227);
#229=CYLINDRICAL_SURFACE('',#228,7.5E-1);
#230=ORIENTED_EDGE('',*,*,#215,.F.);
#231=ORIENTED_EDGE('',*,*,#201,.T.);
#232=ORIENTED_EDGE('',*,*,#219,.T.);
#234=ORIENTED_EDGE('',*,*,#233,.F.);
#235=EDGE_LOOP('',(#230,#231,#232,#234));
#236=FACE_OUTER_BOUND('',#235,.F.);
#237=ADVANCED_FACE('',(#236),#229,.T.);
#238=CARTESIAN_POINT('',(0.E0,0.E0,0.E0));
#239=DIRECTION('',(0.E0,-1.E0,0.E0));
#240=DIRECTION('',(-1.E0,0.E0,0.E0));
#241=AXIS2_PLACEMENT_3D('',#238,#239,#240);
#242=PLANE('',#241);
#243=ORIENTED_EDGE('',*,*,#233,.T.);
#244=ORIENTED_EDGE('',*,*,#217,.F.);
#245=EDGE_LOOP('',(#243,#244));
#246=FACE_OUTER_BOUND('',#245,.F.);
#248=ORIENTED_EDGE('',*,*,#247,.T.);
#250=ORIENTED_EDGE('',*,*,#249,.F.);
#251=EDGE_LOOP('',(#248,#250));
#252=FACE_BOUND('',#251,.F.);
#253=ADVANCED_FACE('',(#246,#252),#242,.F.);
#254=CARTESIAN_POINT('',(0.E0,1.5855E1,0.E0));
#255=DIRECTION('',(0.E0,-1.E0,0.E0));
#256=DIRECTION('',(-1.E0,0.E0,0.E0));
#257=AXIS2_PLACEMENT_3D('',#254,#255,#256);
#258=CYLINDRICAL_SURFACE('',#257,6.E-1);
#260=ORIENTED_EDGE('',*,*,#259,.T.);
#262=ORIENTED_EDGE('',*,*,#261,.T.);
#264=ORIENTED_EDGE('',*,*,#263,.F.);
#265=ORIENTED_EDGE('',*,*,#247,.F.);
#266=EDGE_LOOP('',(#260,#262,#264,#265));
#267=FACE_OUTER_BOUND('',#266,.F.);
#268=ADVANCED_FACE('',(#267),#258,.T.);
#269=CARTESIAN_POINT('',(0.E0,1.5855E1,0.E0));
#270=DIRECTION('',(0.E0,-1.E0,0.E0));
#271=DIRECTION('',(-1.E0,0.E0,0.E0));
#272=AXIS2_PLACEMENT_3D('',#269,#270,#271);
#273=CYLINDRICAL_SURFACE('',#272,6.E-1);
#274=ORIENTED_EDGE('',*,*,#259,.F.);
#275=ORIENTED_EDGE('',*,*,#249,.T.);
#276=ORIENTED_EDGE('',*,*,#263,.T.);
#278=ORIENTED_EDGE('',*,*,#277,.F.);
#279=EDGE_LOOP('',(#274,#275,#276,#278));
#280=FACE_OUTER_BOUND('',#279,.F.);
#281=ADVANCED_FACE('',(#280),#273,.T.);
#282=CARTESIAN_POINT('',(0.E0,1.2725E1,0.E0));
#283=DIRECTION('',(0.E0,-1.E0,0.E0));
#284=DIRECTION('',(-1.E0,0.E0,0.E0));
#285=AXIS2_PLACEMENT_3D('',#282,#283,#284);
#286=CONICAL_SURFACE('',#285,4.75E-1,4.5E1);
#288=ORIENTED_EDGE('',*,*,#287,.F.);
#289=ORIENTED_EDGE('',*,*,#277,.T.);
#291=ORIENTED_EDGE('',*,*,#290,.T.);
#293=ORIENTED_EDGE('',*,*,#292,.F.);
#294=EDGE_LOOP('',(#288,#289,#291,#293));
#295=FACE_OUTER_BOUND('',#294,.F.);
#296=ADVANCED_FACE('',(#295),#286,.T.);
#297=CARTESIAN_POINT('',(0.E0,1.2725E1,0.E0));
#298=DIRECTION('',(0.E0,-1.E0,0.E0));
#299=DIRECTION('',(-1.E0,0.E0,0.E0));
#300=AXIS2_PLACEMENT_3D('',#297,#298,#299);
#301=CONICAL_SURFACE('',#300,4.75E-1,4.5E1);
#302=ORIENTED_EDGE('',*,*,#287,.T.);
#304=ORIENTED_EDGE('',*,*,#303,.T.);
#305=ORIENTED_EDGE('',*,*,#290,.F.);
#306=ORIENTED_EDGE('',*,*,#261,.F.);
#307=EDGE_LOOP('',(#302,#304,#305,#306));
#308=FACE_OUTER_BOUND('',#307,.F.);
#309=ADVANCED_FACE('',(#308),#301,.T.);
#310=CARTESIAN_POINT('',(0.E0,1.5855E1,0.E0));
#311=DIRECTION('',(0.E0,-1.E0,0.E0));
#312=DIRECTION('',(-1.E0,0.E0,0.E0));
#313=AXIS2_PLACEMENT_3D('',#310,#311,#312);
#314=CYLINDRICAL_SURFACE('',#313,3.5E-1);
#316=ORIENTED_EDGE('',*,*,#315,.T.);
#318=ORIENTED_EDGE('',*,*,#317,.T.);
#320=ORIENTED_EDGE('',*,*,#319,.F.);
#321=ORIENTED_EDGE('',*,*,#303,.F.);
#322=EDGE_LOOP('',(#316,#318,#320,#321));
#323=FACE_OUTER_BOUND('',#322,.F.);
#324=ADVANCED_FACE('',(#323),#314,.T.);
#325=CARTESIAN_POINT('',(0.E0,1.5855E1,0.E0));
#326=DIRECTION('',(0.E0,-1.E0,0.E0));
#327=DIRECTION('',(-1.E0,0.E0,0.E0));
#328=AXIS2_PLACEMENT_3D('',#325,#326,#327);
#329=CYLINDRICAL_SURFACE('',#328,3.5E-1);
#330=ORIENTED_EDGE('',*,*,#315,.F.);
#331=ORIENTED_EDGE('',*,*,#292,.T.);
#332=ORIENTED_EDGE('',*,*,#319,.T.);
#334=ORIENTED_EDGE('',*,*,#333,.F.);
#335=EDGE_LOOP('',(#330,#331,#332,#334));
#336=FACE_OUTER_BOUND('',#335,.F.);
#337=ADVANCED_FACE('',(#336),#329,.T.);
#338=CARTESIAN_POINT('',(0.E0,1.49E1,0.E0));
#339=DIRECTION('',(0.E0,-1.E0,0.E0));
#340=DIRECTION('',(-1.E0,0.E0,0.E0));
#341=AXIS2_PLACEMENT_3D('',#338,#339,#340);
#342=PLANE('',#341);
#343=ORIENTED_EDGE('',*,*,#317,.F.);
#344=ORIENTED_EDGE('',*,*,#333,.T.);
#345=EDGE_LOOP('',(#343,#344));
#346=FACE_OUTER_BOUND('',#345,.F.);
#347=ADVANCED_FACE('',(#346),#342,.F.);
#348=CLOSED_SHELL('',(#165,#180,#193,#209,#224,#237,#253,#268,#281,#296,#309,
#324,#337,#347));
#349=MANIFOLD_SOLID_BREP('',#348);
#351=DIMENSIONAL_EXPONENTS(0.E0,0.E0,0.E0,0.E0,0.E0,0.E0,0.E0);
#353=PLANE_ANGLE_MEASURE_WITH_UNIT(PLANE_ANGLE_MEASURE(1.745329251994E-2),#352);
#354=(CONVERSION_BASED_UNIT('DEGREE',#353)NAMED_UNIT(*)PLANE_ANGLE_UNIT());
#356=UNCERTAINTY_MEASURE_WITH_UNIT(LENGTH_MEASURE(2.102254128547E-3),#350,
'closure',
'Maximum model space distance between geometric entities at asserted connectivities');
#357=(GEOMETRIC_REPRESENTATION_CONTEXT(3)GLOBAL_UNCERTAINTY_ASSIGNED_CONTEXT((
#356))GLOBAL_UNIT_ASSIGNED_CONTEXT((#350,#354,#355))REPRESENTATION_CONTEXT
('ID1','3'));
#359=APPLICATION_CONTEXT(
'CONFIGURATION CONTROLLED 3D DESIGNS OF MECHANICAL PARTS AND ASSEMBLIES');
#360=APPLICATION_PROTOCOL_DEFINITION('international standard',
'config_control_design',1994,#359);
#361=DESIGN_CONTEXT('',#359,'design');
#362=MECHANICAL_CONTEXT('',#359,'mechanical');
#363=PRODUCT('3102_0010_000','3102_0010_000','NOT SPECIFIED',(#362));
#364=PRODUCT_DEFINITION_FORMATION_WITH_SPECIFIED_SOURCE('1','LAST_VERSION',#363,
.MADE.);
#368=PRODUCT_CATEGORY('part','');
#369=PRODUCT_RELATED_PRODUCT_CATEGORY('detail','',(#363));
#370=PRODUCT_CATEGORY_RELATIONSHIP('','',#368,#369);
#371=SECURITY_CLASSIFICATION_LEVEL('unclassified');
#372=SECURITY_CLASSIFICATION('','',#371);
#373=CC_DESIGN_SECURITY_CLASSIFICATION(#372,(#364));
#374=APPROVAL_STATUS('approved');
#375=APPROVAL(#374,'');
#376=CC_DESIGN_APPROVAL(#375,(#372,#364,#365));
#377=CALENDAR_DATE(120,31,1);
#378=COORDINATED_UNIVERSAL_TIME_OFFSET(1,0,.AHEAD.);
#379=LOCAL_TIME(10,51,1.1E1,#378);
#380=DATE_AND_TIME(#377,#379);
#381=APPROVAL_DATE_TIME(#380,#375);
#382=DATE_TIME_ROLE('creation_date');
#383=CC_DESIGN_DATE_AND_TIME_ASSIGNMENT(#380,#382,(#365));
#384=DATE_TIME_ROLE('classification_date');
#385=CC_DESIGN_DATE_AND_TIME_ASSIGNMENT(#380,#384,(#372));
#386=PERSON('UNSPECIFIED','UNSPECIFIED',$,$,$,$);
#387=ORGANIZATION('UNSPECIFIED','UNSPECIFIED','UNSPECIFIED');
#388=PERSON_AND_ORGANIZATION(#386,#387);
#389=APPROVAL_ROLE('approver');
#390=APPROVAL_PERSON_ORGANIZATION(#388,#375,#389);
#391=PERSON_AND_ORGANIZATION_ROLE('creator');
#392=CC_DESIGN_PERSON_AND_ORGANIZATION_ASSIGNMENT(#388,#391,(#364,#365));
#393=PERSON_AND_ORGANIZATION_ROLE('design_supplier');
#394=CC_DESIGN_PERSON_AND_ORGANIZATION_ASSIGNMENT(#388,#393,(#364));
#395=PERSON_AND_ORGANIZATION_ROLE('classification_officer');
#396=CC_DESIGN_PERSON_AND_ORGANIZATION_ASSIGNMENT(#388,#395,(#372));
#397=PERSON_AND_ORGANIZATION_ROLE('design_owner');
#398=CC_DESIGN_PERSON_AND_ORGANIZATION_ASSIGNMENT(#388,#397,(#363));
#14=CIRCLE('',#13,4.E-1);
#19=CIRCLE('',#18,4.E-1);
#24=CIRCLE('',#23,4.E-1);
#29=CIRCLE('',#28,4.E-1);
#42=CIRCLE('',#41,7.5E-1);
#47=CIRCLE('',#46,7.5E-1);
#52=CIRCLE('',#51,7.5E-1);
#57=CIRCLE('',#56,7.5E-1);
#70=CIRCLE('',#69,6.E-1);
#75=CIRCLE('',#74,6.E-1);
#80=CIRCLE('',#79,6.E-1);
#93=CIRCLE('',#92,6.E-1);
#106=CIRCLE('',#105,3.5E-1);
#111=CIRCLE('',#110,3.5E-1);
#116=CIRCLE('',#115,3.5E-1);
#121=CIRCLE('',#120,3.5E-1);
#159=EDGE_CURVE('',#124,#140,#14,.T.);
#161=EDGE_CURVE('',#124,#140,#19,.T.);
#171=EDGE_CURVE('',#124,#125,#5,.T.);
#173=EDGE_CURVE('',#125,#141,#29,.T.);
#175=EDGE_CURVE('',#140,#141,#9,.T.);
#189=EDGE_CURVE('',#125,#141,#24,.T.);
#199=EDGE_CURVE('',#128,#144,#42,.T.);
#201=EDGE_CURVE('',#128,#144,#47,.T.);
#215=EDGE_CURVE('',#128,#129,#33,.T.);
#217=EDGE_CURVE('',#129,#145,#57,.T.);
#219=EDGE_CURVE('',#144,#145,#37,.T.);
#233=EDGE_CURVE('',#129,#145,#52,.T.);
#247=EDGE_CURVE('',#132,#148,#70,.T.);
#249=EDGE_CURVE('',#132,#148,#75,.T.);
#259=EDGE_CURVE('',#132,#133,#61,.T.);
#261=EDGE_CURVE('',#133,#149,#93,.T.);
#263=EDGE_CURVE('',#148,#149,#65,.T.);
#277=EDGE_CURVE('',#133,#149,#80,.T.);
#287=EDGE_CURVE('',#133,#135,#84,.T.);
#290=EDGE_CURVE('',#149,#151,#88,.T.);
#292=EDGE_CURVE('',#135,#151,#111,.T.);
#303=EDGE_CURVE('',#135,#151,#106,.T.);
#315=EDGE_CURVE('',#135,#137,#97,.T.);
#317=EDGE_CURVE('',#137,#153,#116,.T.);
#319=EDGE_CURVE('',#151,#153,#101,.T.);
#333=EDGE_CURVE('',#137,#153,#121,.T.);
#350=(LENGTH_UNIT()NAMED_UNIT(*)SI_UNIT(.MILLI.,.METRE.));
#352=(NAMED_UNIT(*)PLANE_ANGLE_UNIT()SI_UNIT($,.RADIAN.));
#355=(NAMED_UNIT(*)SI_UNIT($,.STERADIAN.)SOLID_ANGLE_UNIT());
#358=ADVANCED_BREP_SHAPE_REPRESENTATION('',(#349),#357);
#365=PRODUCT_DEFINITION('design','',#364,#361);
#366=PRODUCT_DEFINITION_SHAPE('','SHAPE FOR 3102_0010_000.',#365);
#367=SHAPE_DEFINITION_REPRESENTATION(#366,#358);
ENDSEC;
END-ISO-10303-21;
