ISO-10303-21;
HEADER;
FILE_DESCRIPTION((''),'2;1');
FILE_NAME('00044322004','2019-09-20T',('presta_be4'),(''),
'PRO/ENGINEER BY PARAMETRIC TECHNOLOGY CORPORATION, 2014310',
'PRO/ENGINEER BY PARAMETRIC TECHNOLOGY CORPORATION, 2014310','');
FILE_SCHEMA(('CONFIG_CONTROL_DESIGN'));
ENDSEC;
DATA;
#1=DIRECTION('',(0.E0,1.E0,0.E0));
#2=VECTOR('',#1,2.03E0);
#3=CARTESIAN_POINT('',(-1.585E0,-1.5E-2,0.E0));
#4=LINE('',#3,#2);
#5=CARTESIAN_POINT('',(0.E0,-1.5E-2,0.E0));
#6=DIRECTION('',(0.E0,1.E0,0.E0));
#7=DIRECTION('',(1.E0,0.E0,0.E0));
#8=AXIS2_PLACEMENT_3D('',#5,#6,#7);
#10=CARTESIAN_POINT('',(0.E0,-1.5E-2,0.E0));
#11=DIRECTION('',(0.E0,1.E0,0.E0));
#12=DIRECTION('',(-1.E0,0.E0,0.E0));
#13=AXIS2_PLACEMENT_3D('',#10,#11,#12);
#15=CARTESIAN_POINT('',(0.E0,-1.5E-2,0.E0));
#16=DIRECTION('',(0.E0,-1.E0,0.E0));
#17=DIRECTION('',(1.E0,0.E0,0.E0));
#18=AXIS2_PLACEMENT_3D('',#15,#16,#17);
#20=CARTESIAN_POINT('',(0.E0,-1.5E-2,0.E0));
#21=DIRECTION('',(0.E0,-1.E0,0.E0));
#22=DIRECTION('',(-1.E0,0.E0,0.E0));
#23=AXIS2_PLACEMENT_3D('',#20,#21,#22);
#25=DIRECTION('',(0.E0,1.E0,0.E0));
#26=VECTOR('',#25,2.03E0);
#27=CARTESIAN_POINT('',(3.015E0,-1.5E-2,0.E0));
#28=LINE('',#27,#26);
#29=DIRECTION('',(0.E0,1.E0,0.E0));
#30=VECTOR('',#29,2.03E0);
#31=CARTESIAN_POINT('',(-3.015E0,-1.5E-2,0.E0));
#32=LINE('',#31,#30);
#33=CARTESIAN_POINT('',(0.E0,2.015E0,0.E0));
#34=DIRECTION('',(0.E0,1.E0,0.E0));
#35=DIRECTION('',(1.E0,0.E0,0.E0));
#36=AXIS2_PLACEMENT_3D('',#33,#34,#35);
#38=CARTESIAN_POINT('',(0.E0,2.015E0,0.E0));
#39=DIRECTION('',(0.E0,1.E0,0.E0));
#40=DIRECTION('',(-1.E0,0.E0,0.E0));
#41=AXIS2_PLACEMENT_3D('',#38,#39,#40);
#43=CARTESIAN_POINT('',(0.E0,2.015E0,0.E0));
#44=DIRECTION('',(0.E0,-1.E0,0.E0));
#45=DIRECTION('',(1.E0,0.E0,0.E0));
#46=AXIS2_PLACEMENT_3D('',#43,#44,#45);
#48=CARTESIAN_POINT('',(0.E0,2.015E0,0.E0));
#49=DIRECTION('',(0.E0,-1.E0,0.E0));
#50=DIRECTION('',(-1.E0,0.E0,0.E0));
#51=AXIS2_PLACEMENT_3D('',#48,#49,#50);
#53=DIRECTION('',(0.E0,1.E0,0.E0));
#54=VECTOR('',#53,2.03E0);
#55=CARTESIAN_POINT('',(1.585E0,-1.5E-2,0.E0));
#56=LINE('',#55,#54);
#57=CARTESIAN_POINT('',(3.015E0,-1.5E-2,0.E0));
#58=CARTESIAN_POINT('',(-3.015E0,-1.5E-2,0.E0));
#59=VERTEX_POINT('',#57);
#60=VERTEX_POINT('',#58);
#61=CARTESIAN_POINT('',(1.585E0,-1.5E-2,0.E0));
#62=CARTESIAN_POINT('',(-1.585E0,-1.5E-2,0.E0));
#63=VERTEX_POINT('',#61);
#64=VERTEX_POINT('',#62);
#65=CARTESIAN_POINT('',(3.015E0,2.015E0,0.E0));
#66=CARTESIAN_POINT('',(-3.015E0,2.015E0,0.E0));
#67=VERTEX_POINT('',#65);
#68=VERTEX_POINT('',#66);
#69=CARTESIAN_POINT('',(1.585E0,2.015E0,0.E0));
#70=CARTESIAN_POINT('',(-1.585E0,2.015E0,0.E0));
#71=VERTEX_POINT('',#69);
#72=VERTEX_POINT('',#70);
#73=CARTESIAN_POINT('',(0.E0,0.E0,0.E0));
#74=DIRECTION('',(0.E0,1.E0,0.E0));
#75=DIRECTION('',(1.E0,0.E0,0.E0));
#76=AXIS2_PLACEMENT_3D('',#73,#74,#75);
#77=CYLINDRICAL_SURFACE('',#76,1.585E0);
#79=ORIENTED_EDGE('',*,*,#78,.F.);
#81=ORIENTED_EDGE('',*,*,#80,.T.);
#83=ORIENTED_EDGE('',*,*,#82,.T.);
#85=ORIENTED_EDGE('',*,*,#84,.F.);
#86=EDGE_LOOP('',(#79,#81,#83,#85));
#87=FACE_OUTER_BOUND('',#86,.F.);
#88=ADVANCED_FACE('',(#87),#77,.F.);
#89=CARTESIAN_POINT('',(0.E0,-1.5E-2,0.E0));
#90=DIRECTION('',(0.E0,1.E0,0.E0));
#91=DIRECTION('',(1.E0,0.E0,0.E0));
#92=AXIS2_PLACEMENT_3D('',#89,#90,#91);
#93=PLANE('',#92);
#95=ORIENTED_EDGE('',*,*,#94,.T.);
#97=ORIENTED_EDGE('',*,*,#96,.T.);
#98=EDGE_LOOP('',(#95,#97));
#99=FACE_OUTER_BOUND('',#98,.F.);
#101=ORIENTED_EDGE('',*,*,#100,.T.);
#102=ORIENTED_EDGE('',*,*,#78,.T.);
#103=EDGE_LOOP('',(#101,#102));
#104=FACE_BOUND('',#103,.F.);
#105=ADVANCED_FACE('',(#99,#104),#93,.F.);
#106=CARTESIAN_POINT('',(0.E0,0.E0,0.E0));
#107=DIRECTION('',(0.E0,1.E0,0.E0));
#108=DIRECTION('',(1.E0,0.E0,0.E0));
#109=AXIS2_PLACEMENT_3D('',#106,#107,#108);
#110=CYLINDRICAL_SURFACE('',#109,3.015E0);
#111=ORIENTED_EDGE('',*,*,#94,.F.);
#113=ORIENTED_EDGE('',*,*,#112,.T.);
#115=ORIENTED_EDGE('',*,*,#114,.T.);
#117=ORIENTED_EDGE('',*,*,#116,.F.);
#118=EDGE_LOOP('',(#111,#113,#115,#117));
#119=FACE_OUTER_BOUND('',#118,.F.);
#120=ADVANCED_FACE('',(#119),#110,.T.);
#121=CARTESIAN_POINT('',(0.E0,0.E0,0.E0));
#122=DIRECTION('',(0.E0,1.E0,0.E0));
#123=DIRECTION('',(1.E0,0.E0,0.E0));
#124=AXIS2_PLACEMENT_3D('',#121,#122,#123);
#125=CYLINDRICAL_SURFACE('',#124,3.015E0);
#126=ORIENTED_EDGE('',*,*,#96,.F.);
#127=ORIENTED_EDGE('',*,*,#116,.T.);
#129=ORIENTED_EDGE('',*,*,#128,.T.);
#130=ORIENTED_EDGE('',*,*,#112,.F.);
#131=EDGE_LOOP('',(#126,#127,#129,#130));
#132=FACE_OUTER_BOUND('',#131,.F.);
#133=ADVANCED_FACE('',(#132),#125,.T.);
#134=CARTESIAN_POINT('',(0.E0,2.015E0,0.E0));
#135=DIRECTION('',(0.E0,1.E0,0.E0));
#136=DIRECTION('',(1.E0,0.E0,0.E0));
#137=AXIS2_PLACEMENT_3D('',#134,#135,#136);
#138=PLANE('',#137);
#139=ORIENTED_EDGE('',*,*,#114,.F.);
#140=ORIENTED_EDGE('',*,*,#128,.F.);
#141=EDGE_LOOP('',(#139,#140));
#142=FACE_OUTER_BOUND('',#141,.F.);
#144=ORIENTED_EDGE('',*,*,#143,.F.);
#145=ORIENTED_EDGE('',*,*,#82,.F.);
#146=EDGE_LOOP('',(#144,#145));
#147=FACE_BOUND('',#146,.F.);
#148=ADVANCED_FACE('',(#142,#147),#138,.T.);
#149=CARTESIAN_POINT('',(0.E0,0.E0,0.E0));
#150=DIRECTION('',(0.E0,1.E0,0.E0));
#151=DIRECTION('',(1.E0,0.E0,0.E0));
#152=AXIS2_PLACEMENT_3D('',#149,#150,#151);
#153=CYLINDRICAL_SURFACE('',#152,1.585E0);
#154=ORIENTED_EDGE('',*,*,#100,.F.);
#155=ORIENTED_EDGE('',*,*,#84,.T.);
#156=ORIENTED_EDGE('',*,*,#143,.T.);
#157=ORIENTED_EDGE('',*,*,#80,.F.);
#158=EDGE_LOOP('',(#154,#155,#156,#157));
#159=FACE_OUTER_BOUND('',#158,.F.);
#160=ADVANCED_FACE('',(#159),#153,.F.);
#161=CLOSED_SHELL('',(#88,#105,#120,#133,#148,#160));
#162=DIRECTION('',(0.E0,1.E0,0.E0));
#163=VECTOR('',#162,2.E0);
#164=CARTESIAN_POINT('',(-1.6E0,0.E0,0.E0));
#165=LINE('',#164,#163);
#166=CARTESIAN_POINT('',(0.E0,0.E0,0.E0));
#167=DIRECTION('',(0.E0,1.E0,0.E0));
#168=DIRECTION('',(1.E0,0.E0,0.E0));
#169=AXIS2_PLACEMENT_3D('',#166,#167,#168);
#171=CARTESIAN_POINT('',(0.E0,0.E0,0.E0));
#172=DIRECTION('',(0.E0,1.E0,0.E0));
#173=DIRECTION('',(-1.E0,0.E0,0.E0));
#174=AXIS2_PLACEMENT_3D('',#171,#172,#173);
#176=CARTESIAN_POINT('',(0.E0,0.E0,0.E0));
#177=DIRECTION('',(0.E0,-1.E0,0.E0));
#178=DIRECTION('',(1.E0,0.E0,0.E0));
#179=AXIS2_PLACEMENT_3D('',#176,#177,#178);
#181=CARTESIAN_POINT('',(0.E0,0.E0,0.E0));
#182=DIRECTION('',(0.E0,-1.E0,0.E0));
#183=DIRECTION('',(-1.E0,0.E0,0.E0));
#184=AXIS2_PLACEMENT_3D('',#181,#182,#183);
#186=DIRECTION('',(0.E0,1.E0,0.E0));
#187=VECTOR('',#186,2.E0);
#188=CARTESIAN_POINT('',(3.E0,0.E0,0.E0));
#189=LINE('',#188,#187);
#190=DIRECTION('',(0.E0,1.E0,0.E0));
#191=VECTOR('',#190,2.E0);
#192=CARTESIAN_POINT('',(-3.E0,0.E0,0.E0));
#193=LINE('',#192,#191);
#194=CARTESIAN_POINT('',(0.E0,2.E0,0.E0));
#195=DIRECTION('',(0.E0,1.E0,0.E0));
#196=DIRECTION('',(1.E0,0.E0,0.E0));
#197=AXIS2_PLACEMENT_3D('',#194,#195,#196);
#199=CARTESIAN_POINT('',(0.E0,2.E0,0.E0));
#200=DIRECTION('',(0.E0,1.E0,0.E0));
#201=DIRECTION('',(-1.E0,0.E0,0.E0));
#202=AXIS2_PLACEMENT_3D('',#199,#200,#201);
#204=CARTESIAN_POINT('',(0.E0,2.E0,0.E0));
#205=DIRECTION('',(0.E0,-1.E0,0.E0));
#206=DIRECTION('',(1.E0,0.E0,0.E0));
#207=AXIS2_PLACEMENT_3D('',#204,#205,#206);
#209=CARTESIAN_POINT('',(0.E0,2.E0,0.E0));
#210=DIRECTION('',(0.E0,-1.E0,0.E0));
#211=DIRECTION('',(-1.E0,0.E0,0.E0));
#212=AXIS2_PLACEMENT_3D('',#209,#210,#211);
#214=DIRECTION('',(0.E0,1.E0,0.E0));
#215=VECTOR('',#214,2.E0);
#216=CARTESIAN_POINT('',(1.6E0,0.E0,0.E0));
#217=LINE('',#216,#215);
#218=CARTESIAN_POINT('',(3.E0,0.E0,0.E0));
#219=CARTESIAN_POINT('',(-3.E0,0.E0,0.E0));
#220=VERTEX_POINT('',#218);
#221=VERTEX_POINT('',#219);
#222=CARTESIAN_POINT('',(1.6E0,0.E0,0.E0));
#223=CARTESIAN_POINT('',(-1.6E0,0.E0,0.E0));
#224=VERTEX_POINT('',#222);
#225=VERTEX_POINT('',#223);
#226=CARTESIAN_POINT('',(3.E0,2.E0,0.E0));
#227=CARTESIAN_POINT('',(-3.E0,2.E0,0.E0));
#228=VERTEX_POINT('',#226);
#229=VERTEX_POINT('',#227);
#230=CARTESIAN_POINT('',(1.6E0,2.E0,0.E0));
#231=CARTESIAN_POINT('',(-1.6E0,2.E0,0.E0));
#232=VERTEX_POINT('',#230);
#233=VERTEX_POINT('',#231);
#234=CARTESIAN_POINT('',(0.E0,0.E0,0.E0));
#235=DIRECTION('',(0.E0,1.E0,0.E0));
#236=DIRECTION('',(1.E0,0.E0,0.E0));
#237=AXIS2_PLACEMENT_3D('',#234,#235,#236);
#238=CYLINDRICAL_SURFACE('',#237,1.6E0);
#240=ORIENTED_EDGE('',*,*,#239,.F.);
#242=ORIENTED_EDGE('',*,*,#241,.T.);
#244=ORIENTED_EDGE('',*,*,#243,.T.);
#246=ORIENTED_EDGE('',*,*,#245,.F.);
#247=EDGE_LOOP('',(#240,#242,#244,#246));
#248=FACE_OUTER_BOUND('',#247,.F.);
#249=ADVANCED_FACE('',(#248),#238,.F.);
#250=CARTESIAN_POINT('',(0.E0,0.E0,0.E0));
#251=DIRECTION('',(0.E0,1.E0,0.E0));
#252=DIRECTION('',(1.E0,0.E0,0.E0));
#253=AXIS2_PLACEMENT_3D('',#250,#251,#252);
#254=PLANE('',#253);
#256=ORIENTED_EDGE('',*,*,#255,.T.);
#258=ORIENTED_EDGE('',*,*,#257,.T.);
#259=EDGE_LOOP('',(#256,#258));
#260=FACE_OUTER_BOUND('',#259,.F.);
#262=ORIENTED_EDGE('',*,*,#261,.T.);
#263=ORIENTED_EDGE('',*,*,#239,.T.);
#264=EDGE_LOOP('',(#262,#263));
#265=FACE_BOUND('',#264,.F.);
#266=ADVANCED_FACE('',(#260,#265),#254,.F.);
#267=CARTESIAN_POINT('',(0.E0,0.E0,0.E0));
#268=DIRECTION('',(0.E0,1.E0,0.E0));
#269=DIRECTION('',(1.E0,0.E0,0.E0));
#270=AXIS2_PLACEMENT_3D('',#267,#268,#269);
#271=CYLINDRICAL_SURFACE('',#270,3.E0);
#272=ORIENTED_EDGE('',*,*,#255,.F.);
#274=ORIENTED_EDGE('',*,*,#273,.T.);
#276=ORIENTED_EDGE('',*,*,#275,.T.);
#278=ORIENTED_EDGE('',*,*,#277,.F.);
#279=EDGE_LOOP('',(#272,#274,#276,#278));
#280=FACE_OUTER_BOUND('',#279,.F.);
#281=ADVANCED_FACE('',(#280),#271,.T.);
#282=CARTESIAN_POINT('',(0.E0,0.E0,0.E0));
#283=DIRECTION('',(0.E0,1.E0,0.E0));
#284=DIRECTION('',(1.E0,0.E0,0.E0));
#285=AXIS2_PLACEMENT_3D('',#282,#283,#284);
#286=CYLINDRICAL_SURFACE('',#285,3.E0);
#287=ORIENTED_EDGE('',*,*,#257,.F.);
#288=ORIENTED_EDGE('',*,*,#277,.T.);
#290=ORIENTED_EDGE('',*,*,#289,.T.);
#291=ORIENTED_EDGE('',*,*,#273,.F.);
#292=EDGE_LOOP('',(#287,#288,#290,#291));
#293=FACE_OUTER_BOUND('',#292,.F.);
#294=ADVANCED_FACE('',(#293),#286,.T.);
#295=CARTESIAN_POINT('',(0.E0,2.E0,0.E0));
#296=DIRECTION('',(0.E0,1.E0,0.E0));
#297=DIRECTION('',(1.E0,0.E0,0.E0));
#298=AXIS2_PLACEMENT_3D('',#295,#296,#297);
#299=PLANE('',#298);
#300=ORIENTED_EDGE('',*,*,#275,.F.);
#301=ORIENTED_EDGE('',*,*,#289,.F.);
#302=EDGE_LOOP('',(#300,#301));
#303=FACE_OUTER_BOUND('',#302,.F.);
#305=ORIENTED_EDGE('',*,*,#304,.F.);
#306=ORIENTED_EDGE('',*,*,#243,.F.);
#307=EDGE_LOOP('',(#305,#306));
#308=FACE_BOUND('',#307,.F.);
#309=ADVANCED_FACE('',(#303,#308),#299,.T.);
#310=CARTESIAN_POINT('',(0.E0,0.E0,0.E0));
#311=DIRECTION('',(0.E0,1.E0,0.E0));
#312=DIRECTION('',(1.E0,0.E0,0.E0));
#313=AXIS2_PLACEMENT_3D('',#310,#311,#312);
#314=CYLINDRICAL_SURFACE('',#313,1.6E0);
#315=ORIENTED_EDGE('',*,*,#261,.F.);
#316=ORIENTED_EDGE('',*,*,#245,.T.);
#317=ORIENTED_EDGE('',*,*,#304,.T.);
#318=ORIENTED_EDGE('',*,*,#241,.F.);
#319=EDGE_LOOP('',(#315,#316,#317,#318));
#320=FACE_OUTER_BOUND('',#319,.F.);
#321=ADVANCED_FACE('',(#320),#314,.F.);
#322=CLOSED_SHELL('',(#249,#266,#281,#294,#309,#321));
#323=ORIENTED_CLOSED_SHELL('',*,#322,.F.);
#324=BREP_WITH_VOIDS('',#161,(#323));
#326=DIMENSIONAL_EXPONENTS(0.E0,0.E0,0.E0,0.E0,0.E0,0.E0,0.E0);
#328=PLANE_ANGLE_MEASURE_WITH_UNIT(PLANE_ANGLE_MEASURE(1.745329251994E-2),#327);
#329=(CONVERSION_BASED_UNIT('DEGREE',#328)NAMED_UNIT(*)PLANE_ANGLE_UNIT());
#331=UNCERTAINTY_MEASURE_WITH_UNIT(LENGTH_MEASURE(3.937007874016E-6),#325,
'closure',
'Maximum model space distance between geometric entities at asserted connectivities');
#332=(GEOMETRIC_REPRESENTATION_CONTEXT(3)GLOBAL_UNCERTAINTY_ASSIGNED_CONTEXT((
#331))GLOBAL_UNIT_ASSIGNED_CONTEXT((#325,#329,#330))REPRESENTATION_CONTEXT
('ID1','3'));
#334=APPLICATION_CONTEXT(
'CONFIGURATION CONTROLLED 3D DESIGNS OF MECHANICAL PARTS AND ASSEMBLIES');
#335=APPLICATION_PROTOCOL_DEFINITION('international standard',
'config_control_design',1994,#334);
#336=DESIGN_CONTEXT('',#334,'design');
#337=MECHANICAL_CONTEXT('',#334,'mechanical');
#338=PRODUCT('00044322004','00044322004','NOT SPECIFIED',(#337));
#339=PRODUCT_DEFINITION_FORMATION_WITH_SPECIFIED_SOURCE('1','LAST_VERSION',#338,
.MADE.);
#343=PRODUCT_CATEGORY('part','');
#344=PRODUCT_RELATED_PRODUCT_CATEGORY('detail','',(#338));
#345=PRODUCT_CATEGORY_RELATIONSHIP('','',#343,#344);
#346=SECURITY_CLASSIFICATION_LEVEL('unclassified');
#347=SECURITY_CLASSIFICATION('','',#346);
#348=CC_DESIGN_SECURITY_CLASSIFICATION(#347,(#339));
#349=APPROVAL_STATUS('approved');
#350=APPROVAL(#349,'');
#351=CC_DESIGN_APPROVAL(#350,(#347,#339,#340));
#352=CALENDAR_DATE(119,20,9);
#353=COORDINATED_UNIVERSAL_TIME_OFFSET(2,0,.AHEAD.);
#354=LOCAL_TIME(11,39,2.1E1,#353);
#355=DATE_AND_TIME(#352,#354);
#356=APPROVAL_DATE_TIME(#355,#350);
#357=DATE_TIME_ROLE('creation_date');
#358=CC_DESIGN_DATE_AND_TIME_ASSIGNMENT(#355,#357,(#340));
#359=DATE_TIME_ROLE('classification_date');
#360=CC_DESIGN_DATE_AND_TIME_ASSIGNMENT(#355,#359,(#347));
#361=PERSON('UNSPECIFIED','UNSPECIFIED',$,$,$,$);
#362=ORGANIZATION('UNSPECIFIED','UNSPECIFIED','UNSPECIFIED');
#363=PERSON_AND_ORGANIZATION(#361,#362);
#364=APPROVAL_ROLE('approver');
#365=APPROVAL_PERSON_ORGANIZATION(#363,#350,#364);
#366=PERSON_AND_ORGANIZATION_ROLE('creator');
#367=CC_DESIGN_PERSON_AND_ORGANIZATION_ASSIGNMENT(#363,#366,(#339,#340));
#368=PERSON_AND_ORGANIZATION_ROLE('design_supplier');
#369=CC_DESIGN_PERSON_AND_ORGANIZATION_ASSIGNMENT(#363,#368,(#339));
#370=PERSON_AND_ORGANIZATION_ROLE('classification_officer');
#371=CC_DESIGN_PERSON_AND_ORGANIZATION_ASSIGNMENT(#363,#370,(#347));
#372=PERSON_AND_ORGANIZATION_ROLE('design_owner');
#373=CC_DESIGN_PERSON_AND_ORGANIZATION_ASSIGNMENT(#363,#372,(#338));
#9=CIRCLE('',#8,3.015E0);
#14=CIRCLE('',#13,3.015E0);
#19=CIRCLE('',#18,1.585E0);
#24=CIRCLE('',#23,1.585E0);
#37=CIRCLE('',#36,3.015E0);
#42=CIRCLE('',#41,3.015E0);
#47=CIRCLE('',#46,1.585E0);
#52=CIRCLE('',#51,1.585E0);
#78=EDGE_CURVE('',#64,#63,#24,.T.);
#80=EDGE_CURVE('',#64,#72,#4,.T.);
#82=EDGE_CURVE('',#72,#71,#52,.T.);
#84=EDGE_CURVE('',#63,#71,#56,.T.);
#94=EDGE_CURVE('',#59,#60,#9,.T.);
#96=EDGE_CURVE('',#60,#59,#14,.T.);
#100=EDGE_CURVE('',#63,#64,#19,.T.);
#112=EDGE_CURVE('',#59,#67,#28,.T.);
#114=EDGE_CURVE('',#67,#68,#37,.T.);
#116=EDGE_CURVE('',#60,#68,#32,.T.);
#128=EDGE_CURVE('',#68,#67,#42,.T.);
#143=EDGE_CURVE('',#71,#72,#47,.T.);
#170=CIRCLE('',#169,3.E0);
#175=CIRCLE('',#174,3.E0);
#180=CIRCLE('',#179,1.6E0);
#185=CIRCLE('',#184,1.6E0);
#198=CIRCLE('',#197,3.E0);
#203=CIRCLE('',#202,3.E0);
#208=CIRCLE('',#207,1.6E0);
#213=CIRCLE('',#212,1.6E0);
#239=EDGE_CURVE('',#225,#224,#185,.T.);
#241=EDGE_CURVE('',#225,#233,#165,.T.);
#243=EDGE_CURVE('',#233,#232,#213,.T.);
#245=EDGE_CURVE('',#224,#232,#217,.T.);
#255=EDGE_CURVE('',#220,#221,#170,.T.);
#257=EDGE_CURVE('',#221,#220,#175,.T.);
#261=EDGE_CURVE('',#224,#225,#180,.T.);
#273=EDGE_CURVE('',#220,#228,#189,.T.);
#275=EDGE_CURVE('',#228,#229,#198,.T.);
#277=EDGE_CURVE('',#221,#229,#193,.T.);
#289=EDGE_CURVE('',#229,#228,#203,.T.);
#304=EDGE_CURVE('',#232,#233,#208,.T.);
#325=(LENGTH_UNIT()NAMED_UNIT(*)SI_UNIT(.MILLI.,.METRE.));
#327=(NAMED_UNIT(*)PLANE_ANGLE_UNIT()SI_UNIT($,.RADIAN.));
#330=(NAMED_UNIT(*)SI_UNIT($,.STERADIAN.)SOLID_ANGLE_UNIT());
#333=ADVANCED_BREP_SHAPE_REPRESENTATION('',(#324),#332);
#340=PRODUCT_DEFINITION('design','',#339,#336);
#341=PRODUCT_DEFINITION_SHAPE('','SHAPE FOR 00044322004.',#340);
#342=SHAPE_DEFINITION_REPRESENTATION(#341,#333);
ENDSEC;
END-ISO-10303-21;
