ISO-10303-21;
HEADER;
FILE_DESCRIPTION((''),'2;1');
FILE_NAME('00044060304','2019-09-24T',('presta_be4'),(''),
'PRO/ENGINEER BY PARAMETRIC TECHNOLOGY CORPORATION, 2014310',
'PRO/ENGINEER BY PARAMETRIC TECHNOLOGY CORPORATION, 2014310','');
FILE_SCHEMA(('CONFIG_CONTROL_DESIGN'));
ENDSEC;
DATA;
#1=DIRECTION('',(0.E0,1.E0,0.E0));
#2=VECTOR('',#1,3.03E0);
#3=CARTESIAN_POINT('',(6.015E0,-1.5E-2,0.E0));
#4=LINE('',#3,#2);
#5=DIRECTION('',(0.E0,1.E0,0.E0));
#6=VECTOR('',#5,3.03E0);
#7=CARTESIAN_POINT('',(-6.015E0,-1.5E-2,0.E0));
#8=LINE('',#7,#6);
#9=CARTESIAN_POINT('',(0.E0,-1.5E-2,0.E0));
#10=DIRECTION('',(0.E0,1.E0,0.E0));
#11=DIRECTION('',(1.E0,0.E0,0.E0));
#12=AXIS2_PLACEMENT_3D('',#9,#10,#11);
#14=CARTESIAN_POINT('',(0.E0,-1.5E-2,0.E0));
#15=DIRECTION('',(0.E0,-1.E0,0.E0));
#16=DIRECTION('',(1.E0,0.E0,0.E0));
#17=AXIS2_PLACEMENT_3D('',#14,#15,#16);
#19=CARTESIAN_POINT('',(0.E0,-1.5E-2,0.E0));
#20=DIRECTION('',(0.E0,1.E0,0.E0));
#21=DIRECTION('',(1.E0,0.E0,0.E0));
#22=AXIS2_PLACEMENT_3D('',#19,#20,#21);
#24=CARTESIAN_POINT('',(0.E0,-1.5E-2,0.E0));
#25=DIRECTION('',(0.E0,-1.E0,0.E0));
#26=DIRECTION('',(1.E0,0.E0,0.E0));
#27=AXIS2_PLACEMENT_3D('',#24,#25,#26);
#29=DIRECTION('',(0.E0,-1.E0,0.E0));
#30=VECTOR('',#29,3.03E0);
#31=CARTESIAN_POINT('',(3.235E0,3.015E0,0.E0));
#32=LINE('',#31,#30);
#33=DIRECTION('',(0.E0,-1.E0,0.E0));
#34=VECTOR('',#33,3.03E0);
#35=CARTESIAN_POINT('',(-3.235E0,3.015E0,0.E0));
#36=LINE('',#35,#34);
#37=CARTESIAN_POINT('',(0.E0,3.015E0,0.E0));
#38=DIRECTION('',(0.E0,1.E0,0.E0));
#39=DIRECTION('',(1.E0,0.E0,0.E0));
#40=AXIS2_PLACEMENT_3D('',#37,#38,#39);
#42=CARTESIAN_POINT('',(0.E0,3.015E0,0.E0));
#43=DIRECTION('',(0.E0,-1.E0,0.E0));
#44=DIRECTION('',(1.E0,0.E0,0.E0));
#45=AXIS2_PLACEMENT_3D('',#42,#43,#44);
#47=CARTESIAN_POINT('',(0.E0,3.015E0,0.E0));
#48=DIRECTION('',(0.E0,1.E0,0.E0));
#49=DIRECTION('',(1.E0,0.E0,0.E0));
#50=AXIS2_PLACEMENT_3D('',#47,#48,#49);
#52=CARTESIAN_POINT('',(0.E0,3.015E0,0.E0));
#53=DIRECTION('',(0.E0,-1.E0,0.E0));
#54=DIRECTION('',(1.E0,0.E0,0.E0));
#55=AXIS2_PLACEMENT_3D('',#52,#53,#54);
#57=CARTESIAN_POINT('',(3.235E0,3.015E0,0.E0));
#58=CARTESIAN_POINT('',(3.235E0,-1.5E-2,0.E0));
#59=VERTEX_POINT('',#57);
#60=VERTEX_POINT('',#58);
#61=CARTESIAN_POINT('',(6.015E0,-1.5E-2,0.E0));
#62=CARTESIAN_POINT('',(6.015E0,3.015E0,0.E0));
#63=VERTEX_POINT('',#61);
#64=VERTEX_POINT('',#62);
#65=CARTESIAN_POINT('',(-3.235E0,3.015E0,0.E0));
#66=CARTESIAN_POINT('',(-3.235E0,-1.5E-2,0.E0));
#67=VERTEX_POINT('',#65);
#68=VERTEX_POINT('',#66);
#69=CARTESIAN_POINT('',(-6.015E0,-1.5E-2,0.E0));
#70=CARTESIAN_POINT('',(-6.015E0,3.015E0,0.E0));
#71=VERTEX_POINT('',#69);
#72=VERTEX_POINT('',#70);
#73=CARTESIAN_POINT('',(0.E0,3.15E0,0.E0));
#74=DIRECTION('',(0.E0,-1.E0,0.E0));
#75=DIRECTION('',(-1.E0,0.E0,0.E0));
#76=AXIS2_PLACEMENT_3D('',#73,#74,#75);
#77=CYLINDRICAL_SURFACE('',#76,6.015E0);
#79=ORIENTED_EDGE('',*,*,#78,.T.);
#81=ORIENTED_EDGE('',*,*,#80,.T.);
#83=ORIENTED_EDGE('',*,*,#82,.F.);
#85=ORIENTED_EDGE('',*,*,#84,.F.);
#86=EDGE_LOOP('',(#79,#81,#83,#85));
#87=FACE_OUTER_BOUND('',#86,.F.);
#88=ADVANCED_FACE('',(#87),#77,.T.);
#89=CARTESIAN_POINT('',(0.E0,3.15E0,0.E0));
#90=DIRECTION('',(0.E0,-1.E0,0.E0));
#91=DIRECTION('',(-1.E0,0.E0,0.E0));
#92=AXIS2_PLACEMENT_3D('',#89,#90,#91);
#93=CYLINDRICAL_SURFACE('',#92,6.015E0);
#94=ORIENTED_EDGE('',*,*,#78,.F.);
#96=ORIENTED_EDGE('',*,*,#95,.T.);
#97=ORIENTED_EDGE('',*,*,#82,.T.);
#99=ORIENTED_EDGE('',*,*,#98,.F.);
#100=EDGE_LOOP('',(#94,#96,#97,#99));
#101=FACE_OUTER_BOUND('',#100,.F.);
#102=ADVANCED_FACE('',(#101),#93,.T.);
#103=CARTESIAN_POINT('',(0.E0,-1.5E-2,0.E0));
#104=DIRECTION('',(0.E0,-1.E0,0.E0));
#105=DIRECTION('',(-1.E0,0.E0,0.E0));
#106=AXIS2_PLACEMENT_3D('',#103,#104,#105);
#107=PLANE('',#106);
#108=ORIENTED_EDGE('',*,*,#95,.F.);
#109=ORIENTED_EDGE('',*,*,#84,.T.);
#110=EDGE_LOOP('',(#108,#109));
#111=FACE_OUTER_BOUND('',#110,.F.);
#113=ORIENTED_EDGE('',*,*,#112,.F.);
#115=ORIENTED_EDGE('',*,*,#114,.T.);
#116=EDGE_LOOP('',(#113,#115));
#117=FACE_BOUND('',#116,.F.);
#118=ADVANCED_FACE('',(#111,#117),#107,.T.);
#119=CARTESIAN_POINT('',(0.E0,3.15E0,0.E0));
#120=DIRECTION('',(0.E0,-1.E0,0.E0));
#121=DIRECTION('',(-1.E0,0.E0,0.E0));
#122=AXIS2_PLACEMENT_3D('',#119,#120,#121);
#123=CYLINDRICAL_SURFACE('',#122,3.235E0);
#125=ORIENTED_EDGE('',*,*,#124,.T.);
#126=ORIENTED_EDGE('',*,*,#112,.T.);
#128=ORIENTED_EDGE('',*,*,#127,.F.);
#130=ORIENTED_EDGE('',*,*,#129,.F.);
#131=EDGE_LOOP('',(#125,#126,#128,#130));
#132=FACE_OUTER_BOUND('',#131,.F.);
#133=ADVANCED_FACE('',(#132),#123,.F.);
#134=CARTESIAN_POINT('',(0.E0,3.15E0,0.E0));
#135=DIRECTION('',(0.E0,-1.E0,0.E0));
#136=DIRECTION('',(-1.E0,0.E0,0.E0));
#137=AXIS2_PLACEMENT_3D('',#134,#135,#136);
#138=CYLINDRICAL_SURFACE('',#137,3.235E0);
#139=ORIENTED_EDGE('',*,*,#124,.F.);
#141=ORIENTED_EDGE('',*,*,#140,.T.);
#142=ORIENTED_EDGE('',*,*,#127,.T.);
#143=ORIENTED_EDGE('',*,*,#114,.F.);
#144=EDGE_LOOP('',(#139,#141,#142,#143));
#145=FACE_OUTER_BOUND('',#144,.F.);
#146=ADVANCED_FACE('',(#145),#138,.F.);
#147=CARTESIAN_POINT('',(0.E0,3.015E0,0.E0));
#148=DIRECTION('',(0.E0,-1.E0,0.E0));
#149=DIRECTION('',(-1.E0,0.E0,0.E0));
#150=AXIS2_PLACEMENT_3D('',#147,#148,#149);
#151=PLANE('',#150);
#152=ORIENTED_EDGE('',*,*,#80,.F.);
#153=ORIENTED_EDGE('',*,*,#98,.T.);
#154=EDGE_LOOP('',(#152,#153));
#155=FACE_OUTER_BOUND('',#154,.F.);
#156=ORIENTED_EDGE('',*,*,#140,.F.);
#157=ORIENTED_EDGE('',*,*,#129,.T.);
#158=EDGE_LOOP('',(#156,#157));
#159=FACE_BOUND('',#158,.F.);
#160=ADVANCED_FACE('',(#155,#159),#151,.F.);
#161=CLOSED_SHELL('',(#88,#102,#118,#133,#146,#160));
#162=DIRECTION('',(0.E0,1.E0,0.E0));
#163=VECTOR('',#162,3.E0);
#164=CARTESIAN_POINT('',(6.E0,0.E0,0.E0));
#165=LINE('',#164,#163);
#166=DIRECTION('',(0.E0,1.E0,0.E0));
#167=VECTOR('',#166,3.E0);
#168=CARTESIAN_POINT('',(-6.E0,0.E0,0.E0));
#169=LINE('',#168,#167);
#170=CARTESIAN_POINT('',(0.E0,0.E0,0.E0));
#171=DIRECTION('',(0.E0,1.E0,0.E0));
#172=DIRECTION('',(1.E0,0.E0,0.E0));
#173=AXIS2_PLACEMENT_3D('',#170,#171,#172);
#175=CARTESIAN_POINT('',(0.E0,0.E0,0.E0));
#176=DIRECTION('',(0.E0,-1.E0,0.E0));
#177=DIRECTION('',(1.E0,0.E0,0.E0));
#178=AXIS2_PLACEMENT_3D('',#175,#176,#177);
#180=CARTESIAN_POINT('',(0.E0,0.E0,0.E0));
#181=DIRECTION('',(0.E0,1.E0,0.E0));
#182=DIRECTION('',(1.E0,0.E0,0.E0));
#183=AXIS2_PLACEMENT_3D('',#180,#181,#182);
#185=CARTESIAN_POINT('',(0.E0,0.E0,0.E0));
#186=DIRECTION('',(0.E0,-1.E0,0.E0));
#187=DIRECTION('',(1.E0,0.E0,0.E0));
#188=AXIS2_PLACEMENT_3D('',#185,#186,#187);
#190=DIRECTION('',(0.E0,-1.E0,0.E0));
#191=VECTOR('',#190,3.E0);
#192=CARTESIAN_POINT('',(3.25E0,3.E0,0.E0));
#193=LINE('',#192,#191);
#194=DIRECTION('',(0.E0,-1.E0,0.E0));
#195=VECTOR('',#194,3.E0);
#196=CARTESIAN_POINT('',(-3.25E0,3.E0,0.E0));
#197=LINE('',#196,#195);
#198=CARTESIAN_POINT('',(0.E0,3.E0,0.E0));
#199=DIRECTION('',(0.E0,1.E0,0.E0));
#200=DIRECTION('',(1.E0,0.E0,0.E0));
#201=AXIS2_PLACEMENT_3D('',#198,#199,#200);
#203=CARTESIAN_POINT('',(0.E0,3.E0,0.E0));
#204=DIRECTION('',(0.E0,-1.E0,0.E0));
#205=DIRECTION('',(1.E0,0.E0,0.E0));
#206=AXIS2_PLACEMENT_3D('',#203,#204,#205);
#208=CARTESIAN_POINT('',(0.E0,3.E0,0.E0));
#209=DIRECTION('',(0.E0,1.E0,0.E0));
#210=DIRECTION('',(1.E0,0.E0,0.E0));
#211=AXIS2_PLACEMENT_3D('',#208,#209,#210);
#213=CARTESIAN_POINT('',(0.E0,3.E0,0.E0));
#214=DIRECTION('',(0.E0,-1.E0,0.E0));
#215=DIRECTION('',(1.E0,0.E0,0.E0));
#216=AXIS2_PLACEMENT_3D('',#213,#214,#215);
#218=CARTESIAN_POINT('',(3.25E0,3.E0,0.E0));
#219=CARTESIAN_POINT('',(3.25E0,0.E0,0.E0));
#220=VERTEX_POINT('',#218);
#221=VERTEX_POINT('',#219);
#222=CARTESIAN_POINT('',(6.E0,0.E0,0.E0));
#223=CARTESIAN_POINT('',(6.E0,3.E0,0.E0));
#224=VERTEX_POINT('',#222);
#225=VERTEX_POINT('',#223);
#226=CARTESIAN_POINT('',(-3.25E0,3.E0,0.E0));
#227=CARTESIAN_POINT('',(-3.25E0,0.E0,0.E0));
#228=VERTEX_POINT('',#226);
#229=VERTEX_POINT('',#227);
#230=CARTESIAN_POINT('',(-6.E0,0.E0,0.E0));
#231=CARTESIAN_POINT('',(-6.E0,3.E0,0.E0));
#232=VERTEX_POINT('',#230);
#233=VERTEX_POINT('',#231);
#234=CARTESIAN_POINT('',(0.E0,3.15E0,0.E0));
#235=DIRECTION('',(0.E0,-1.E0,0.E0));
#236=DIRECTION('',(-1.E0,0.E0,0.E0));
#237=AXIS2_PLACEMENT_3D('',#234,#235,#236);
#238=CYLINDRICAL_SURFACE('',#237,6.E0);
#240=ORIENTED_EDGE('',*,*,#239,.T.);
#242=ORIENTED_EDGE('',*,*,#241,.T.);
#244=ORIENTED_EDGE('',*,*,#243,.F.);
#246=ORIENTED_EDGE('',*,*,#245,.F.);
#247=EDGE_LOOP('',(#240,#242,#244,#246));
#248=FACE_OUTER_BOUND('',#247,.F.);
#249=ADVANCED_FACE('',(#248),#238,.T.);
#250=CARTESIAN_POINT('',(0.E0,3.15E0,0.E0));
#251=DIRECTION('',(0.E0,-1.E0,0.E0));
#252=DIRECTION('',(-1.E0,0.E0,0.E0));
#253=AXIS2_PLACEMENT_3D('',#250,#251,#252);
#254=CYLINDRICAL_SURFACE('',#253,6.E0);
#255=ORIENTED_EDGE('',*,*,#239,.F.);
#257=ORIENTED_EDGE('',*,*,#256,.T.);
#258=ORIENTED_EDGE('',*,*,#243,.T.);
#260=ORIENTED_EDGE('',*,*,#259,.F.);
#261=EDGE_LOOP('',(#255,#257,#258,#260));
#262=FACE_OUTER_BOUND('',#261,.F.);
#263=ADVANCED_FACE('',(#262),#254,.T.);
#264=CARTESIAN_POINT('',(0.E0,0.E0,0.E0));
#265=DIRECTION('',(0.E0,-1.E0,0.E0));
#266=DIRECTION('',(-1.E0,0.E0,0.E0));
#267=AXIS2_PLACEMENT_3D('',#264,#265,#266);
#268=PLANE('',#267);
#269=ORIENTED_EDGE('',*,*,#256,.F.);
#270=ORIENTED_EDGE('',*,*,#245,.T.);
#271=EDGE_LOOP('',(#269,#270));
#272=FACE_OUTER_BOUND('',#271,.F.);
#274=ORIENTED_EDGE('',*,*,#273,.F.);
#276=ORIENTED_EDGE('',*,*,#275,.T.);
#277=EDGE_LOOP('',(#274,#276));
#278=FACE_BOUND('',#277,.F.);
#279=ADVANCED_FACE('',(#272,#278),#268,.T.);
#280=CARTESIAN_POINT('',(0.E0,3.15E0,0.E0));
#281=DIRECTION('',(0.E0,-1.E0,0.E0));
#282=DIRECTION('',(-1.E0,0.E0,0.E0));
#283=AXIS2_PLACEMENT_3D('',#280,#281,#282);
#284=CYLINDRICAL_SURFACE('',#283,3.25E0);
#286=ORIENTED_EDGE('',*,*,#285,.T.);
#287=ORIENTED_EDGE('',*,*,#273,.T.);
#289=ORIENTED_EDGE('',*,*,#288,.F.);
#291=ORIENTED_EDGE('',*,*,#290,.F.);
#292=EDGE_LOOP('',(#286,#287,#289,#291));
#293=FACE_OUTER_BOUND('',#292,.F.);
#294=ADVANCED_FACE('',(#293),#284,.F.);
#295=CARTESIAN_POINT('',(0.E0,3.15E0,0.E0));
#296=DIRECTION('',(0.E0,-1.E0,0.E0));
#297=DIRECTION('',(-1.E0,0.E0,0.E0));
#298=AXIS2_PLACEMENT_3D('',#295,#296,#297);
#299=CYLINDRICAL_SURFACE('',#298,3.25E0);
#300=ORIENTED_EDGE('',*,*,#285,.F.);
#302=ORIENTED_EDGE('',*,*,#301,.T.);
#303=ORIENTED_EDGE('',*,*,#288,.T.);
#304=ORIENTED_EDGE('',*,*,#275,.F.);
#305=EDGE_LOOP('',(#300,#302,#303,#304));
#306=FACE_OUTER_BOUND('',#305,.F.);
#307=ADVANCED_FACE('',(#306),#299,.F.);
#308=CARTESIAN_POINT('',(0.E0,3.E0,0.E0));
#309=DIRECTION('',(0.E0,-1.E0,0.E0));
#310=DIRECTION('',(-1.E0,0.E0,0.E0));
#311=AXIS2_PLACEMENT_3D('',#308,#309,#310);
#312=PLANE('',#311);
#313=ORIENTED_EDGE('',*,*,#241,.F.);
#314=ORIENTED_EDGE('',*,*,#259,.T.);
#315=EDGE_LOOP('',(#313,#314));
#316=FACE_OUTER_BOUND('',#315,.F.);
#317=ORIENTED_EDGE('',*,*,#301,.F.);
#318=ORIENTED_EDGE('',*,*,#290,.T.);
#319=EDGE_LOOP('',(#317,#318));
#320=FACE_BOUND('',#319,.F.);
#321=ADVANCED_FACE('',(#316,#320),#312,.F.);
#322=CLOSED_SHELL('',(#249,#263,#279,#294,#307,#321));
#323=ORIENTED_CLOSED_SHELL('',*,#322,.F.);
#324=BREP_WITH_VOIDS('',#161,(#323));
#326=DIMENSIONAL_EXPONENTS(0.E0,0.E0,0.E0,0.E0,0.E0,0.E0,0.E0);
#328=PLANE_ANGLE_MEASURE_WITH_UNIT(PLANE_ANGLE_MEASURE(1.745329251994E-2),#327);
#329=(CONVERSION_BASED_UNIT('DEGREE',#328)NAMED_UNIT(*)PLANE_ANGLE_UNIT());
#331=UNCERTAINTY_MEASURE_WITH_UNIT(LENGTH_MEASURE(3.937007874016E-6),#325,
'closure',
'Maximum model space distance between geometric entities at asserted connectivities');
#332=(GEOMETRIC_REPRESENTATION_CONTEXT(3)GLOBAL_UNCERTAINTY_ASSIGNED_CONTEXT((
#331))GLOBAL_UNIT_ASSIGNED_CONTEXT((#325,#329,#330))REPRESENTATION_CONTEXT
('ID1','3'));
#334=APPLICATION_CONTEXT(
'CONFIGURATION CONTROLLED 3D DESIGNS OF MECHANICAL PARTS AND ASSEMBLIES');
#335=APPLICATION_PROTOCOL_DEFINITION('international standard',
'config_control_design',1994,#334);
#336=DESIGN_CONTEXT('',#334,'design');
#337=MECHANICAL_CONTEXT('',#334,'mechanical');
#338=PRODUCT('00044060304','00044060304','NOT SPECIFIED',(#337));
#339=PRODUCT_DEFINITION_FORMATION_WITH_SPECIFIED_SOURCE('1','LAST_VERSION',#338,
.MADE.);
#343=PRODUCT_CATEGORY('part','');
#344=PRODUCT_RELATED_PRODUCT_CATEGORY('detail','',(#338));
#345=PRODUCT_CATEGORY_RELATIONSHIP('','',#343,#344);
#346=SECURITY_CLASSIFICATION_LEVEL('unclassified');
#347=SECURITY_CLASSIFICATION('','',#346);
#348=CC_DESIGN_SECURITY_CLASSIFICATION(#347,(#339));
#349=APPROVAL_STATUS('approved');
#350=APPROVAL(#349,'');
#351=CC_DESIGN_APPROVAL(#350,(#347,#339,#340));
#352=CALENDAR_DATE(119,24,9);
#353=COORDINATED_UNIVERSAL_TIME_OFFSET(2,0,.AHEAD.);
#354=LOCAL_TIME(14,16,3.2E1,#353);
#355=DATE_AND_TIME(#352,#354);
#356=APPROVAL_DATE_TIME(#355,#350);
#357=DATE_TIME_ROLE('creation_date');
#358=CC_DESIGN_DATE_AND_TIME_ASSIGNMENT(#355,#357,(#340));
#359=DATE_TIME_ROLE('classification_date');
#360=CC_DESIGN_DATE_AND_TIME_ASSIGNMENT(#355,#359,(#347));
#361=PERSON('UNSPECIFIED','UNSPECIFIED',$,$,$,$);
#362=ORGANIZATION('UNSPECIFIED','UNSPECIFIED','UNSPECIFIED');
#363=PERSON_AND_ORGANIZATION(#361,#362);
#364=APPROVAL_ROLE('approver');
#365=APPROVAL_PERSON_ORGANIZATION(#363,#350,#364);
#366=PERSON_AND_ORGANIZATION_ROLE('creator');
#367=CC_DESIGN_PERSON_AND_ORGANIZATION_ASSIGNMENT(#363,#366,(#339,#340));
#368=PERSON_AND_ORGANIZATION_ROLE('design_supplier');
#369=CC_DESIGN_PERSON_AND_ORGANIZATION_ASSIGNMENT(#363,#368,(#339));
#370=PERSON_AND_ORGANIZATION_ROLE('classification_officer');
#371=CC_DESIGN_PERSON_AND_ORGANIZATION_ASSIGNMENT(#363,#370,(#347));
#372=PERSON_AND_ORGANIZATION_ROLE('design_owner');
#373=CC_DESIGN_PERSON_AND_ORGANIZATION_ASSIGNMENT(#363,#372,(#338));
#13=CIRCLE('',#12,6.015E0);
#18=CIRCLE('',#17,6.015E0);
#23=CIRCLE('',#22,3.235E0);
#28=CIRCLE('',#27,3.235E0);
#41=CIRCLE('',#40,3.235E0);
#46=CIRCLE('',#45,3.235E0);
#51=CIRCLE('',#50,6.015E0);
#56=CIRCLE('',#55,6.015E0);
#78=EDGE_CURVE('',#63,#64,#4,.T.);
#80=EDGE_CURVE('',#64,#72,#51,.T.);
#82=EDGE_CURVE('',#71,#72,#8,.T.);
#84=EDGE_CURVE('',#63,#71,#13,.T.);
#95=EDGE_CURVE('',#63,#71,#18,.T.);
#98=EDGE_CURVE('',#64,#72,#56,.T.);
#112=EDGE_CURVE('',#60,#68,#23,.T.);
#114=EDGE_CURVE('',#60,#68,#28,.T.);
#124=EDGE_CURVE('',#59,#60,#32,.T.);
#127=EDGE_CURVE('',#67,#68,#36,.T.);
#129=EDGE_CURVE('',#59,#67,#41,.T.);
#140=EDGE_CURVE('',#59,#67,#46,.T.);
#174=CIRCLE('',#173,6.E0);
#179=CIRCLE('',#178,6.E0);
#184=CIRCLE('',#183,3.25E0);
#189=CIRCLE('',#188,3.25E0);
#202=CIRCLE('',#201,3.25E0);
#207=CIRCLE('',#206,3.25E0);
#212=CIRCLE('',#211,6.E0);
#217=CIRCLE('',#216,6.E0);
#239=EDGE_CURVE('',#224,#225,#165,.T.);
#241=EDGE_CURVE('',#225,#233,#212,.T.);
#243=EDGE_CURVE('',#232,#233,#169,.T.);
#245=EDGE_CURVE('',#224,#232,#174,.T.);
#256=EDGE_CURVE('',#224,#232,#179,.T.);
#259=EDGE_CURVE('',#225,#233,#217,.T.);
#273=EDGE_CURVE('',#221,#229,#184,.T.);
#275=EDGE_CURVE('',#221,#229,#189,.T.);
#285=EDGE_CURVE('',#220,#221,#193,.T.);
#288=EDGE_CURVE('',#228,#229,#197,.T.);
#290=EDGE_CURVE('',#220,#228,#202,.T.);
#301=EDGE_CURVE('',#220,#228,#207,.T.);
#325=(LENGTH_UNIT()NAMED_UNIT(*)SI_UNIT(.MILLI.,.METRE.));
#327=(NAMED_UNIT(*)PLANE_ANGLE_UNIT()SI_UNIT($,.RADIAN.));
#330=(NAMED_UNIT(*)SI_UNIT($,.STERADIAN.)SOLID_ANGLE_UNIT());
#333=ADVANCED_BREP_SHAPE_REPRESENTATION('',(#324),#332);
#340=PRODUCT_DEFINITION('design','',#339,#336);
#341=PRODUCT_DEFINITION_SHAPE('','SHAPE FOR 00044060304.',#340);
#342=SHAPE_DEFINITION_REPRESENTATION(#341,#333);
ENDSEC;
END-ISO-10303-21;
