ISO-10303-21;
HEADER;
FILE_DESCRIPTION((''),'2;1');
FILE_NAME('32420056000','2019-09-24T',('presta_be4'),(''),
'PRO/ENGINEER BY PARAMETRIC TECHNOLOGY CORPORATION, 2014310',
'PRO/ENGINEER BY PARAMETRIC TECHNOLOGY CORPORATION, 2014310','');
FILE_SCHEMA(('CONFIG_CONTROL_DESIGN'));
ENDSEC;
DATA;
#1=DIRECTION('',(0.E0,0.E0,1.E0));
#2=VECTOR('',#1,1.4E2);
#3=CARTESIAN_POINT('',(-1.045E2,0.E0,-7.E1));
#4=LINE('',#3,#2);
#5=DIRECTION('',(1.E0,0.E0,0.E0));
#6=VECTOR('',#5,2.09E2);
#7=CARTESIAN_POINT('',(-1.045E2,0.E0,7.E1));
#8=LINE('',#7,#6);
#9=DIRECTION('',(0.E0,0.E0,-1.E0));
#10=VECTOR('',#9,1.4E2);
#11=CARTESIAN_POINT('',(1.045E2,0.E0,7.E1));
#12=LINE('',#11,#10);
#13=DIRECTION('',(-1.E0,0.E0,0.E0));
#14=VECTOR('',#13,2.09E2);
#15=CARTESIAN_POINT('',(1.045E2,0.E0,-7.E1));
#16=LINE('',#15,#14);
#17=CARTESIAN_POINT('',(-9.9475E1,0.E0,0.E0));
#18=DIRECTION('',(0.E0,1.E0,0.E0));
#19=DIRECTION('',(0.E0,0.E0,-1.E0));
#20=AXIS2_PLACEMENT_3D('',#17,#18,#19);
#22=DIRECTION('',(-1.E0,0.E0,0.E0));
#23=VECTOR('',#22,1.75E0);
#24=CARTESIAN_POINT('',(-9.7725E1,0.E0,-2.5E0));
#25=LINE('',#24,#23);
#26=CARTESIAN_POINT('',(-9.7725E1,0.E0,0.E0));
#27=DIRECTION('',(0.E0,1.E0,0.E0));
#28=DIRECTION('',(0.E0,0.E0,1.E0));
#29=AXIS2_PLACEMENT_3D('',#26,#27,#28);
#31=DIRECTION('',(1.E0,0.E0,0.E0));
#32=VECTOR('',#31,1.75E0);
#33=CARTESIAN_POINT('',(-9.9475E1,0.E0,2.5E0));
#34=LINE('',#33,#32);
#35=DIRECTION('',(-1.E0,0.E0,0.E0));
#36=VECTOR('',#35,1.75E0);
#37=CARTESIAN_POINT('',(9.9475E1,0.E0,-2.5E0));
#38=LINE('',#37,#36);
#39=CARTESIAN_POINT('',(9.9475E1,0.E0,0.E0));
#40=DIRECTION('',(0.E0,1.E0,0.E0));
#41=DIRECTION('',(0.E0,0.E0,1.E0));
#42=AXIS2_PLACEMENT_3D('',#39,#40,#41);
#44=DIRECTION('',(1.E0,0.E0,0.E0));
#45=VECTOR('',#44,1.75E0);
#46=CARTESIAN_POINT('',(9.7725E1,0.E0,2.5E0));
#47=LINE('',#46,#45);
#48=CARTESIAN_POINT('',(9.7725E1,0.E0,0.E0));
#49=DIRECTION('',(0.E0,1.E0,0.E0));
#50=DIRECTION('',(0.E0,0.E0,-1.E0));
#51=AXIS2_PLACEMENT_3D('',#48,#49,#50);
#53=DIRECTION('',(0.E0,1.E0,0.E0));
#54=VECTOR('',#53,2.E0);
#55=CARTESIAN_POINT('',(-1.045E2,0.E0,-7.E1));
#56=LINE('',#55,#54);
#57=DIRECTION('',(0.E0,1.E0,0.E0));
#58=VECTOR('',#57,2.E0);
#59=CARTESIAN_POINT('',(1.045E2,0.E0,-7.E1));
#60=LINE('',#59,#58);
#61=DIRECTION('',(0.E0,1.E0,0.E0));
#62=VECTOR('',#61,2.E0);
#63=CARTESIAN_POINT('',(1.045E2,0.E0,7.E1));
#64=LINE('',#63,#62);
#65=DIRECTION('',(0.E0,1.E0,0.E0));
#66=VECTOR('',#65,2.E0);
#67=CARTESIAN_POINT('',(-1.045E2,0.E0,7.E1));
#68=LINE('',#67,#66);
#69=DIRECTION('',(0.E0,0.E0,1.E0));
#70=VECTOR('',#69,1.4E2);
#71=CARTESIAN_POINT('',(-1.045E2,2.E0,-7.E1));
#72=LINE('',#71,#70);
#73=DIRECTION('',(-1.E0,0.E0,0.E0));
#74=VECTOR('',#73,2.09E2);
#75=CARTESIAN_POINT('',(1.045E2,2.E0,-7.E1));
#76=LINE('',#75,#74);
#77=DIRECTION('',(0.E0,0.E0,-1.E0));
#78=VECTOR('',#77,1.4E2);
#79=CARTESIAN_POINT('',(1.045E2,2.E0,7.E1));
#80=LINE('',#79,#78);
#81=DIRECTION('',(1.E0,0.E0,0.E0));
#82=VECTOR('',#81,2.09E2);
#83=CARTESIAN_POINT('',(-1.045E2,2.E0,7.E1));
#84=LINE('',#83,#82);
#85=CARTESIAN_POINT('',(-9.9475E1,2.E0,0.E0));
#86=DIRECTION('',(0.E0,1.E0,0.E0));
#87=DIRECTION('',(0.E0,0.E0,-1.E0));
#88=AXIS2_PLACEMENT_3D('',#85,#86,#87);
#90=DIRECTION('',(1.E0,0.E0,0.E0));
#91=VECTOR('',#90,1.75E0);
#92=CARTESIAN_POINT('',(-9.9475E1,2.E0,2.5E0));
#93=LINE('',#92,#91);
#94=CARTESIAN_POINT('',(-9.7725E1,2.E0,0.E0));
#95=DIRECTION('',(0.E0,1.E0,0.E0));
#96=DIRECTION('',(0.E0,0.E0,1.E0));
#97=AXIS2_PLACEMENT_3D('',#94,#95,#96);
#99=DIRECTION('',(-1.E0,0.E0,0.E0));
#100=VECTOR('',#99,1.75E0);
#101=CARTESIAN_POINT('',(-9.7725E1,2.E0,-2.5E0));
#102=LINE('',#101,#100);
#103=DIRECTION('',(-1.E0,0.E0,0.E0));
#104=VECTOR('',#103,1.75E0);
#105=CARTESIAN_POINT('',(9.9475E1,2.E0,-2.5E0));
#106=LINE('',#105,#104);
#107=CARTESIAN_POINT('',(9.7725E1,2.E0,0.E0));
#108=DIRECTION('',(0.E0,1.E0,0.E0));
#109=DIRECTION('',(0.E0,0.E0,-1.E0));
#110=AXIS2_PLACEMENT_3D('',#107,#108,#109);
#112=DIRECTION('',(1.E0,0.E0,0.E0));
#113=VECTOR('',#112,1.75E0);
#114=CARTESIAN_POINT('',(9.7725E1,2.E0,2.5E0));
#115=LINE('',#114,#113);
#116=CARTESIAN_POINT('',(9.9475E1,2.E0,0.E0));
#117=DIRECTION('',(0.E0,1.E0,0.E0));
#118=DIRECTION('',(0.E0,0.E0,1.E0));
#119=AXIS2_PLACEMENT_3D('',#116,#117,#118);
#121=DIRECTION('',(0.E0,-1.E0,0.E0));
#122=VECTOR('',#121,2.E0);
#123=CARTESIAN_POINT('',(-9.9475E1,2.E0,-2.5E0));
#124=LINE('',#123,#122);
#125=DIRECTION('',(0.E0,-1.E0,0.E0));
#126=VECTOR('',#125,2.E0);
#127=CARTESIAN_POINT('',(-9.9475E1,2.E0,2.5E0));
#128=LINE('',#127,#126);
#129=DIRECTION('',(0.E0,-1.E0,0.E0));
#130=VECTOR('',#129,2.E0);
#131=CARTESIAN_POINT('',(-9.7725E1,2.E0,2.5E0));
#132=LINE('',#131,#130);
#133=DIRECTION('',(0.E0,-1.E0,0.E0));
#134=VECTOR('',#133,2.E0);
#135=CARTESIAN_POINT('',(-9.7725E1,2.E0,-2.5E0));
#136=LINE('',#135,#134);
#137=DIRECTION('',(0.E0,-1.E0,0.E0));
#138=VECTOR('',#137,2.E0);
#139=CARTESIAN_POINT('',(9.9475E1,2.E0,-2.5E0));
#140=LINE('',#139,#138);
#141=DIRECTION('',(0.E0,-1.E0,0.E0));
#142=VECTOR('',#141,2.E0);
#143=CARTESIAN_POINT('',(9.7725E1,2.E0,-2.5E0));
#144=LINE('',#143,#142);
#145=DIRECTION('',(0.E0,-1.E0,0.E0));
#146=VECTOR('',#145,2.E0);
#147=CARTESIAN_POINT('',(9.7725E1,2.E0,2.5E0));
#148=LINE('',#147,#146);
#149=DIRECTION('',(0.E0,-1.E0,0.E0));
#150=VECTOR('',#149,2.E0);
#151=CARTESIAN_POINT('',(9.9475E1,2.E0,2.5E0));
#152=LINE('',#151,#150);
#153=CARTESIAN_POINT('',(-1.045E2,0.E0,-7.E1));
#154=CARTESIAN_POINT('',(-1.045E2,0.E0,7.E1));
#155=VERTEX_POINT('',#153);
#156=VERTEX_POINT('',#154);
#157=CARTESIAN_POINT('',(1.045E2,0.E0,7.E1));
#158=VERTEX_POINT('',#157);
#159=CARTESIAN_POINT('',(1.045E2,0.E0,-7.E1));
#160=VERTEX_POINT('',#159);
#161=CARTESIAN_POINT('',(-1.045E2,2.E0,-7.E1));
#162=CARTESIAN_POINT('',(-1.045E2,2.E0,7.E1));
#163=VERTEX_POINT('',#161);
#164=VERTEX_POINT('',#162);
#165=CARTESIAN_POINT('',(1.045E2,2.E0,7.E1));
#166=VERTEX_POINT('',#165);
#167=CARTESIAN_POINT('',(1.045E2,2.E0,-7.E1));
#168=VERTEX_POINT('',#167);
#169=CARTESIAN_POINT('',(-9.9475E1,0.E0,-2.5E0));
#170=CARTESIAN_POINT('',(-9.9475E1,0.E0,2.5E0));
#171=VERTEX_POINT('',#169);
#172=VERTEX_POINT('',#170);
#173=CARTESIAN_POINT('',(-9.7725E1,0.E0,2.5E0));
#174=VERTEX_POINT('',#173);
#175=CARTESIAN_POINT('',(-9.7725E1,0.E0,-2.5E0));
#176=VERTEX_POINT('',#175);
#177=CARTESIAN_POINT('',(9.9475E1,0.E0,-2.5E0));
#178=CARTESIAN_POINT('',(9.7725E1,0.E0,-2.5E0));
#179=VERTEX_POINT('',#177);
#180=VERTEX_POINT('',#178);
#181=CARTESIAN_POINT('',(9.7725E1,0.E0,2.5E0));
#182=VERTEX_POINT('',#181);
#183=CARTESIAN_POINT('',(9.9475E1,0.E0,2.5E0));
#184=VERTEX_POINT('',#183);
#185=CARTESIAN_POINT('',(-9.9475E1,2.E0,-2.5E0));
#186=CARTESIAN_POINT('',(-9.9475E1,2.E0,2.5E0));
#187=VERTEX_POINT('',#185);
#188=VERTEX_POINT('',#186);
#189=CARTESIAN_POINT('',(-9.7725E1,2.E0,2.5E0));
#190=VERTEX_POINT('',#189);
#191=CARTESIAN_POINT('',(-9.7725E1,2.E0,-2.5E0));
#192=VERTEX_POINT('',#191);
#193=CARTESIAN_POINT('',(9.9475E1,2.E0,-2.5E0));
#194=CARTESIAN_POINT('',(9.7725E1,2.E0,-2.5E0));
#195=VERTEX_POINT('',#193);
#196=VERTEX_POINT('',#194);
#197=CARTESIAN_POINT('',(9.7725E1,2.E0,2.5E0));
#198=VERTEX_POINT('',#197);
#199=CARTESIAN_POINT('',(9.9475E1,2.E0,2.5E0));
#200=VERTEX_POINT('',#199);
#201=CARTESIAN_POINT('',(0.E0,0.E0,0.E0));
#202=DIRECTION('',(0.E0,1.E0,0.E0));
#203=DIRECTION('',(1.E0,0.E0,0.E0));
#204=AXIS2_PLACEMENT_3D('',#201,#202,#203);
#205=PLANE('',#204);
#207=ORIENTED_EDGE('',*,*,#206,.T.);
#209=ORIENTED_EDGE('',*,*,#208,.T.);
#211=ORIENTED_EDGE('',*,*,#210,.T.);
#213=ORIENTED_EDGE('',*,*,#212,.T.);
#214=EDGE_LOOP('',(#207,#209,#211,#213));
#215=FACE_OUTER_BOUND('',#214,.F.);
#217=ORIENTED_EDGE('',*,*,#216,.F.);
#219=ORIENTED_EDGE('',*,*,#218,.F.);
#221=ORIENTED_EDGE('',*,*,#220,.F.);
#223=ORIENTED_EDGE('',*,*,#222,.F.);
#224=EDGE_LOOP('',(#217,#219,#221,#223));
#225=FACE_BOUND('',#224,.F.);
#227=ORIENTED_EDGE('',*,*,#226,.F.);
#229=ORIENTED_EDGE('',*,*,#228,.F.);
#231=ORIENTED_EDGE('',*,*,#230,.F.);
#233=ORIENTED_EDGE('',*,*,#232,.F.);
#234=EDGE_LOOP('',(#227,#229,#231,#233));
#235=FACE_BOUND('',#234,.F.);
#236=ADVANCED_FACE('',(#215,#225,#235),#205,.F.);
#237=CARTESIAN_POINT('',(-1.045E2,0.E0,-7.E1));
#238=DIRECTION('',(-1.E0,0.E0,0.E0));
#239=DIRECTION('',(0.E0,0.E0,1.E0));
#240=AXIS2_PLACEMENT_3D('',#237,#238,#239);
#241=PLANE('',#240);
#242=ORIENTED_EDGE('',*,*,#206,.F.);
#244=ORIENTED_EDGE('',*,*,#243,.T.);
#246=ORIENTED_EDGE('',*,*,#245,.T.);
#248=ORIENTED_EDGE('',*,*,#247,.F.);
#249=EDGE_LOOP('',(#242,#244,#246,#248));
#250=FACE_OUTER_BOUND('',#249,.F.);
#251=ADVANCED_FACE('',(#250),#241,.T.);
#252=CARTESIAN_POINT('',(1.045E2,0.E0,-7.E1));
#253=DIRECTION('',(0.E0,0.E0,-1.E0));
#254=DIRECTION('',(-1.E0,0.E0,0.E0));
#255=AXIS2_PLACEMENT_3D('',#252,#253,#254);
#256=PLANE('',#255);
#257=ORIENTED_EDGE('',*,*,#212,.F.);
#259=ORIENTED_EDGE('',*,*,#258,.T.);
#261=ORIENTED_EDGE('',*,*,#260,.T.);
#262=ORIENTED_EDGE('',*,*,#243,.F.);
#263=EDGE_LOOP('',(#257,#259,#261,#262));
#264=FACE_OUTER_BOUND('',#263,.F.);
#265=ADVANCED_FACE('',(#264),#256,.T.);
#266=CARTESIAN_POINT('',(1.045E2,0.E0,7.E1));
#267=DIRECTION('',(1.E0,0.E0,0.E0));
#268=DIRECTION('',(0.E0,0.E0,-1.E0));
#269=AXIS2_PLACEMENT_3D('',#266,#267,#268);
#270=PLANE('',#269);
#271=ORIENTED_EDGE('',*,*,#210,.F.);
#273=ORIENTED_EDGE('',*,*,#272,.T.);
#275=ORIENTED_EDGE('',*,*,#274,.T.);
#276=ORIENTED_EDGE('',*,*,#258,.F.);
#277=EDGE_LOOP('',(#271,#273,#275,#276));
#278=FACE_OUTER_BOUND('',#277,.F.);
#279=ADVANCED_FACE('',(#278),#270,.T.);
#280=CARTESIAN_POINT('',(-1.045E2,0.E0,7.E1));
#281=DIRECTION('',(0.E0,0.E0,1.E0));
#282=DIRECTION('',(1.E0,0.E0,0.E0));
#283=AXIS2_PLACEMENT_3D('',#280,#281,#282);
#284=PLANE('',#283);
#285=ORIENTED_EDGE('',*,*,#208,.F.);
#286=ORIENTED_EDGE('',*,*,#247,.T.);
#288=ORIENTED_EDGE('',*,*,#287,.T.);
#289=ORIENTED_EDGE('',*,*,#272,.F.);
#290=EDGE_LOOP('',(#285,#286,#288,#289));
#291=FACE_OUTER_BOUND('',#290,.F.);
#292=ADVANCED_FACE('',(#291),#284,.T.);
#293=CARTESIAN_POINT('',(0.E0,2.E0,0.E0));
#294=DIRECTION('',(0.E0,1.E0,0.E0));
#295=DIRECTION('',(1.E0,0.E0,0.E0));
#296=AXIS2_PLACEMENT_3D('',#293,#294,#295);
#297=PLANE('',#296);
#298=ORIENTED_EDGE('',*,*,#245,.F.);
#299=ORIENTED_EDGE('',*,*,#260,.F.);
#300=ORIENTED_EDGE('',*,*,#274,.F.);
#301=ORIENTED_EDGE('',*,*,#287,.F.);
#302=EDGE_LOOP('',(#298,#299,#300,#301));
#303=FACE_OUTER_BOUND('',#302,.F.);
#305=ORIENTED_EDGE('',*,*,#304,.T.);
#307=ORIENTED_EDGE('',*,*,#306,.T.);
#309=ORIENTED_EDGE('',*,*,#308,.T.);
#311=ORIENTED_EDGE('',*,*,#310,.T.);
#312=EDGE_LOOP('',(#305,#307,#309,#311));
#313=FACE_BOUND('',#312,.F.);
#315=ORIENTED_EDGE('',*,*,#314,.T.);
#317=ORIENTED_EDGE('',*,*,#316,.T.);
#319=ORIENTED_EDGE('',*,*,#318,.T.);
#321=ORIENTED_EDGE('',*,*,#320,.T.);
#322=EDGE_LOOP('',(#315,#317,#319,#321));
#323=FACE_BOUND('',#322,.F.);
#324=ADVANCED_FACE('',(#303,#313,#323),#297,.T.);
#325=CARTESIAN_POINT('',(-9.9475E1,2.E0,0.E0));
#326=DIRECTION('',(0.E0,1.E0,0.E0));
#327=DIRECTION('',(1.E0,0.E0,0.E0));
#328=AXIS2_PLACEMENT_3D('',#325,#326,#327);
#329=CYLINDRICAL_SURFACE('',#328,2.5E0);
#330=ORIENTED_EDGE('',*,*,#216,.T.);
#332=ORIENTED_EDGE('',*,*,#331,.F.);
#333=ORIENTED_EDGE('',*,*,#304,.F.);
#335=ORIENTED_EDGE('',*,*,#334,.T.);
#336=EDGE_LOOP('',(#330,#332,#333,#335));
#337=FACE_OUTER_BOUND('',#336,.F.);
#338=ADVANCED_FACE('',(#337),#329,.F.);
#339=CARTESIAN_POINT('',(-9.9475E1,2.E0,2.5E0));
#340=DIRECTION('',(0.E0,0.E0,1.E0));
#341=DIRECTION('',(1.E0,0.E0,0.E0));
#342=AXIS2_PLACEMENT_3D('',#339,#340,#341);
#343=PLANE('',#342);
#344=ORIENTED_EDGE('',*,*,#222,.T.);
#346=ORIENTED_EDGE('',*,*,#345,.F.);
#347=ORIENTED_EDGE('',*,*,#306,.F.);
#348=ORIENTED_EDGE('',*,*,#331,.T.);
#349=EDGE_LOOP('',(#344,#346,#347,#348));
#350=FACE_OUTER_BOUND('',#349,.F.);
#351=ADVANCED_FACE('',(#350),#343,.F.);
#352=CARTESIAN_POINT('',(-9.7725E1,2.E0,0.E0));
#353=DIRECTION('',(0.E0,1.E0,0.E0));
#354=DIRECTION('',(1.E0,0.E0,0.E0));
#355=AXIS2_PLACEMENT_3D('',#352,#353,#354);
#356=CYLINDRICAL_SURFACE('',#355,2.5E0);
#357=ORIENTED_EDGE('',*,*,#220,.T.);
#359=ORIENTED_EDGE('',*,*,#358,.F.);
#360=ORIENTED_EDGE('',*,*,#308,.F.);
#361=ORIENTED_EDGE('',*,*,#345,.T.);
#362=EDGE_LOOP('',(#357,#359,#360,#361));
#363=FACE_OUTER_BOUND('',#362,.F.);
#364=ADVANCED_FACE('',(#363),#356,.F.);
#365=CARTESIAN_POINT('',(-9.7725E1,2.E0,-2.5E0));
#366=DIRECTION('',(0.E0,0.E0,-1.E0));
#367=DIRECTION('',(-1.E0,0.E0,0.E0));
#368=AXIS2_PLACEMENT_3D('',#365,#366,#367);
#369=PLANE('',#368);
#370=ORIENTED_EDGE('',*,*,#218,.T.);
#371=ORIENTED_EDGE('',*,*,#334,.F.);
#372=ORIENTED_EDGE('',*,*,#310,.F.);
#373=ORIENTED_EDGE('',*,*,#358,.T.);
#374=EDGE_LOOP('',(#370,#371,#372,#373));
#375=FACE_OUTER_BOUND('',#374,.F.);
#376=ADVANCED_FACE('',(#375),#369,.F.);
#377=CARTESIAN_POINT('',(9.9475E1,2.E0,-2.5E0));
#378=DIRECTION('',(0.E0,0.E0,-1.E0));
#379=DIRECTION('',(-1.E0,0.E0,0.E0));
#380=AXIS2_PLACEMENT_3D('',#377,#378,#379);
#381=PLANE('',#380);
#382=ORIENTED_EDGE('',*,*,#226,.T.);
#384=ORIENTED_EDGE('',*,*,#383,.F.);
#385=ORIENTED_EDGE('',*,*,#314,.F.);
#387=ORIENTED_EDGE('',*,*,#386,.T.);
#388=EDGE_LOOP('',(#382,#384,#385,#387));
#389=FACE_OUTER_BOUND('',#388,.F.);
#390=ADVANCED_FACE('',(#389),#381,.F.);
#391=CARTESIAN_POINT('',(9.7725E1,2.E0,0.E0));
#392=DIRECTION('',(0.E0,1.E0,0.E0));
#393=DIRECTION('',(1.E0,0.E0,0.E0));
#394=AXIS2_PLACEMENT_3D('',#391,#392,#393);
#395=CYLINDRICAL_SURFACE('',#394,2.5E0);
#396=ORIENTED_EDGE('',*,*,#232,.T.);
#398=ORIENTED_EDGE('',*,*,#397,.F.);
#399=ORIENTED_EDGE('',*,*,#316,.F.);
#400=ORIENTED_EDGE('',*,*,#383,.T.);
#401=EDGE_LOOP('',(#396,#398,#399,#400));
#402=FACE_OUTER_BOUND('',#401,.F.);
#403=ADVANCED_FACE('',(#402),#395,.F.);
#404=CARTESIAN_POINT('',(9.7725E1,2.E0,2.5E0));
#405=DIRECTION('',(0.E0,0.E0,1.E0));
#406=DIRECTION('',(1.E0,0.E0,0.E0));
#407=AXIS2_PLACEMENT_3D('',#404,#405,#406);
#408=PLANE('',#407);
#409=ORIENTED_EDGE('',*,*,#230,.T.);
#411=ORIENTED_EDGE('',*,*,#410,.F.);
#412=ORIENTED_EDGE('',*,*,#318,.F.);
#413=ORIENTED_EDGE('',*,*,#397,.T.);
#414=EDGE_LOOP('',(#409,#411,#412,#413));
#415=FACE_OUTER_BOUND('',#414,.F.);
#416=ADVANCED_FACE('',(#415),#408,.F.);
#417=CARTESIAN_POINT('',(9.9475E1,2.E0,0.E0));
#418=DIRECTION('',(0.E0,1.E0,0.E0));
#419=DIRECTION('',(1.E0,0.E0,0.E0));
#420=AXIS2_PLACEMENT_3D('',#417,#418,#419);
#421=CYLINDRICAL_SURFACE('',#420,2.5E0);
#422=ORIENTED_EDGE('',*,*,#228,.T.);
#423=ORIENTED_EDGE('',*,*,#386,.F.);
#424=ORIENTED_EDGE('',*,*,#320,.F.);
#425=ORIENTED_EDGE('',*,*,#410,.T.);
#426=EDGE_LOOP('',(#422,#423,#424,#425));
#427=FACE_OUTER_BOUND('',#426,.F.);
#428=ADVANCED_FACE('',(#427),#421,.F.);
#429=CLOSED_SHELL('',(#236,#251,#265,#279,#292,#324,#338,#351,#364,#376,#390,
#403,#416,#428));
#430=MANIFOLD_SOLID_BREP('',#429);
#432=DIMENSIONAL_EXPONENTS(0.E0,0.E0,0.E0,0.E0,0.E0,0.E0,0.E0);
#434=PLANE_ANGLE_MEASURE_WITH_UNIT(PLANE_ANGLE_MEASURE(1.745329251994E-2),#433);
#435=(CONVERSION_BASED_UNIT('DEGREE',#434)NAMED_UNIT(*)PLANE_ANGLE_UNIT());
#437=UNCERTAINTY_MEASURE_WITH_UNIT(LENGTH_MEASURE(1.089377153961E-3),#431,
'closure',
'Maximum model space distance between geometric entities at asserted connectivities');
#438=(GEOMETRIC_REPRESENTATION_CONTEXT(3)GLOBAL_UNCERTAINTY_ASSIGNED_CONTEXT((
#437))GLOBAL_UNIT_ASSIGNED_CONTEXT((#431,#435,#436))REPRESENTATION_CONTEXT
('ID1','3'));
#440=APPLICATION_CONTEXT(
'CONFIGURATION CONTROLLED 3D DESIGNS OF MECHANICAL PARTS AND ASSEMBLIES');
#441=APPLICATION_PROTOCOL_DEFINITION('international standard',
'config_control_design',1994,#440);
#442=DESIGN_CONTEXT('',#440,'design');
#443=MECHANICAL_CONTEXT('',#440,'mechanical');
#444=PRODUCT('32420056000','32420056000','NOT SPECIFIED',(#443));
#445=PRODUCT_DEFINITION_FORMATION_WITH_SPECIFIED_SOURCE('1','LAST_VERSION',#444,
.MADE.);
#449=PRODUCT_CATEGORY('part','');
#450=PRODUCT_RELATED_PRODUCT_CATEGORY('detail','',(#444));
#451=PRODUCT_CATEGORY_RELATIONSHIP('','',#449,#450);
#452=SECURITY_CLASSIFICATION_LEVEL('unclassified');
#453=SECURITY_CLASSIFICATION('','',#452);
#454=CC_DESIGN_SECURITY_CLASSIFICATION(#453,(#445));
#455=APPROVAL_STATUS('approved');
#456=APPROVAL(#455,'');
#457=CC_DESIGN_APPROVAL(#456,(#453,#445,#446));
#458=CALENDAR_DATE(119,24,9);
#459=COORDINATED_UNIVERSAL_TIME_OFFSET(2,0,.AHEAD.);
#460=LOCAL_TIME(15,57,0.E0,#459);
#461=DATE_AND_TIME(#458,#460);
#462=APPROVAL_DATE_TIME(#461,#456);
#463=DATE_TIME_ROLE('creation_date');
#464=CC_DESIGN_DATE_AND_TIME_ASSIGNMENT(#461,#463,(#446));
#465=DATE_TIME_ROLE('classification_date');
#466=CC_DESIGN_DATE_AND_TIME_ASSIGNMENT(#461,#465,(#453));
#467=PERSON('UNSPECIFIED','UNSPECIFIED',$,$,$,$);
#468=ORGANIZATION('UNSPECIFIED','UNSPECIFIED','UNSPECIFIED');
#469=PERSON_AND_ORGANIZATION(#467,#468);
#470=APPROVAL_ROLE('approver');
#471=APPROVAL_PERSON_ORGANIZATION(#469,#456,#470);
#472=PERSON_AND_ORGANIZATION_ROLE('creator');
#473=CC_DESIGN_PERSON_AND_ORGANIZATION_ASSIGNMENT(#469,#472,(#445,#446));
#474=PERSON_AND_ORGANIZATION_ROLE('design_supplier');
#475=CC_DESIGN_PERSON_AND_ORGANIZATION_ASSIGNMENT(#469,#474,(#445));
#476=PERSON_AND_ORGANIZATION_ROLE('classification_officer');
#477=CC_DESIGN_PERSON_AND_ORGANIZATION_ASSIGNMENT(#469,#476,(#453));
#478=PERSON_AND_ORGANIZATION_ROLE('design_owner');
#479=CC_DESIGN_PERSON_AND_ORGANIZATION_ASSIGNMENT(#469,#478,(#444));
#21=CIRCLE('',#20,2.5E0);
#30=CIRCLE('',#29,2.5E0);
#43=CIRCLE('',#42,2.5E0);
#52=CIRCLE('',#51,2.5E0);
#89=CIRCLE('',#88,2.5E0);
#98=CIRCLE('',#97,2.5E0);
#111=CIRCLE('',#110,2.5E0);
#120=CIRCLE('',#119,2.5E0);
#206=EDGE_CURVE('',#155,#156,#4,.T.);
#208=EDGE_CURVE('',#156,#158,#8,.T.);
#210=EDGE_CURVE('',#158,#160,#12,.T.);
#212=EDGE_CURVE('',#160,#155,#16,.T.);
#216=EDGE_CURVE('',#171,#172,#21,.T.);
#218=EDGE_CURVE('',#176,#171,#25,.T.);
#220=EDGE_CURVE('',#174,#176,#30,.T.);
#222=EDGE_CURVE('',#172,#174,#34,.T.);
#226=EDGE_CURVE('',#179,#180,#38,.T.);
#228=EDGE_CURVE('',#184,#179,#43,.T.);
#230=EDGE_CURVE('',#182,#184,#47,.T.);
#232=EDGE_CURVE('',#180,#182,#52,.T.);
#243=EDGE_CURVE('',#155,#163,#56,.T.);
#245=EDGE_CURVE('',#163,#164,#72,.T.);
#247=EDGE_CURVE('',#156,#164,#68,.T.);
#258=EDGE_CURVE('',#160,#168,#60,.T.);
#260=EDGE_CURVE('',#168,#163,#76,.T.);
#272=EDGE_CURVE('',#158,#166,#64,.T.);
#274=EDGE_CURVE('',#166,#168,#80,.T.);
#287=EDGE_CURVE('',#164,#166,#84,.T.);
#304=EDGE_CURVE('',#187,#188,#89,.T.);
#306=EDGE_CURVE('',#188,#190,#93,.T.);
#308=EDGE_CURVE('',#190,#192,#98,.T.);
#310=EDGE_CURVE('',#192,#187,#102,.T.);
#314=EDGE_CURVE('',#195,#196,#106,.T.);
#316=EDGE_CURVE('',#196,#198,#111,.T.);
#318=EDGE_CURVE('',#198,#200,#115,.T.);
#320=EDGE_CURVE('',#200,#195,#120,.T.);
#331=EDGE_CURVE('',#188,#172,#128,.T.);
#334=EDGE_CURVE('',#187,#171,#124,.T.);
#345=EDGE_CURVE('',#190,#174,#132,.T.);
#358=EDGE_CURVE('',#192,#176,#136,.T.);
#383=EDGE_CURVE('',#196,#180,#144,.T.);
#386=EDGE_CURVE('',#195,#179,#140,.T.);
#397=EDGE_CURVE('',#198,#182,#148,.T.);
#410=EDGE_CURVE('',#200,#184,#152,.T.);
#431=(LENGTH_UNIT()NAMED_UNIT(*)SI_UNIT(.MILLI.,.METRE.));
#433=(NAMED_UNIT(*)PLANE_ANGLE_UNIT()SI_UNIT($,.RADIAN.));
#436=(NAMED_UNIT(*)SI_UNIT($,.STERADIAN.)SOLID_ANGLE_UNIT());
#439=ADVANCED_BREP_SHAPE_REPRESENTATION('',(#430),#438);
#446=PRODUCT_DEFINITION('design','',#445,#442);
#447=PRODUCT_DEFINITION_SHAPE('','SHAPE FOR 32420056000.',#446);
#448=SHAPE_DEFINITION_REPRESENTATION(#447,#439);
ENDSEC;
END-ISO-10303-21;
