ISO-10303-21;
HEADER;
FILE_DESCRIPTION((''),'2;1');
FILE_NAME('3350_0202_501','2020-01-31T',('presta_be4'),(''),
'CREO PARAMETRIC BY PTC INC, 2018360','CREO PARAMETRIC BY PTC INC, 2018360','');
FILE_SCHEMA(('CONFIG_CONTROL_DESIGN'));
ENDSEC;
DATA;
#2=DIRECTION('',(0.E0,-1.E0,0.E0));
#3=VECTOR('',#2,1.535E1);
#4=CARTESIAN_POINT('',(-2.235E1,7.675E0,0.E0));
#5=LINE('',#4,#3);
#6=DIRECTION('',(-1.E0,0.E0,0.E0));
#7=VECTOR('',#6,4.47E1);
#8=CARTESIAN_POINT('',(2.235E1,7.675E0,0.E0));
#9=LINE('',#8,#7);
#10=DIRECTION('',(0.E0,1.E0,0.E0));
#11=VECTOR('',#10,1.535E1);
#12=CARTESIAN_POINT('',(2.235E1,-7.675E0,0.E0));
#13=LINE('',#12,#11);
#14=DIRECTION('',(1.E0,0.E0,0.E0));
#15=VECTOR('',#14,4.47E1);
#16=CARTESIAN_POINT('',(-2.235E1,-7.675E0,0.E0));
#17=LINE('',#16,#15);
#18=DIRECTION('',(-7.071067811865E-1,7.071067811865E-1,0.E0));
#19=VECTOR('',#18,2.828427124746E0);
#20=CARTESIAN_POINT('',(-2.565E1,-9.1E0,0.E0));
#21=LINE('',#20,#19);
#22=DIRECTION('',(1.E0,0.E0,0.E0));
#23=VECTOR('',#22,5.13E1);
#24=CARTESIAN_POINT('',(-2.565E1,-9.1E0,0.E0));
#25=LINE('',#24,#23);
#26=DIRECTION('',(-7.071067811865E-1,-7.071067811865E-1,0.E0));
#27=VECTOR('',#26,2.828427124746E0);
#28=CARTESIAN_POINT('',(2.765E1,-7.1E0,0.E0));
#29=LINE('',#28,#27);
#30=DIRECTION('',(0.E0,1.E0,0.E0));
#31=VECTOR('',#30,5.6E0);
#32=CARTESIAN_POINT('',(2.765E1,-7.1E0,0.E0));
#33=LINE('',#32,#31);
#34=DIRECTION('',(1.E0,0.E0,0.E0));
#35=VECTOR('',#34,2.65E0);
#36=CARTESIAN_POINT('',(2.5E1,-1.5E0,0.E0));
#37=LINE('',#36,#35);
#38=CARTESIAN_POINT('',(2.5E1,0.E0,0.E0));
#39=DIRECTION('',(0.E0,0.E0,1.E0));
#40=DIRECTION('',(0.E0,1.E0,0.E0));
#41=AXIS2_PLACEMENT_3D('',#38,#39,#40);
#43=DIRECTION('',(-1.E0,0.E0,0.E0));
#44=VECTOR('',#43,2.65E0);
#45=CARTESIAN_POINT('',(2.765E1,1.5E0,0.E0));
#46=LINE('',#45,#44);
#47=DIRECTION('',(0.E0,1.E0,0.E0));
#48=VECTOR('',#47,5.6E0);
#49=CARTESIAN_POINT('',(2.765E1,1.5E0,0.E0));
#50=LINE('',#49,#48);
#51=DIRECTION('',(7.071067811865E-1,-7.071067811865E-1,0.E0));
#52=VECTOR('',#51,2.828427124746E0);
#53=CARTESIAN_POINT('',(2.565E1,9.1E0,0.E0));
#54=LINE('',#53,#52);
#55=DIRECTION('',(-1.E0,0.E0,0.E0));
#56=VECTOR('',#55,5.13E1);
#57=CARTESIAN_POINT('',(2.565E1,9.1E0,0.E0));
#58=LINE('',#57,#56);
#59=DIRECTION('',(7.071067811865E-1,7.071067811865E-1,0.E0));
#60=VECTOR('',#59,2.828427124746E0);
#61=CARTESIAN_POINT('',(-2.765E1,7.1E0,0.E0));
#62=LINE('',#61,#60);
#63=DIRECTION('',(0.E0,-1.E0,0.E0));
#64=VECTOR('',#63,5.6E0);
#65=CARTESIAN_POINT('',(-2.765E1,7.1E0,0.E0));
#66=LINE('',#65,#64);
#67=DIRECTION('',(-1.E0,0.E0,0.E0));
#68=VECTOR('',#67,2.65E0);
#69=CARTESIAN_POINT('',(-2.5E1,1.5E0,0.E0));
#70=LINE('',#69,#68);
#71=CARTESIAN_POINT('',(-2.5E1,0.E0,0.E0));
#72=DIRECTION('',(0.E0,0.E0,1.E0));
#73=DIRECTION('',(0.E0,-1.E0,0.E0));
#74=AXIS2_PLACEMENT_3D('',#71,#72,#73);
#76=DIRECTION('',(1.E0,0.E0,0.E0));
#77=VECTOR('',#76,2.65E0);
#78=CARTESIAN_POINT('',(-2.765E1,-1.5E0,0.E0));
#79=LINE('',#78,#77);
#80=DIRECTION('',(0.E0,-1.E0,0.E0));
#81=VECTOR('',#80,5.6E0);
#82=CARTESIAN_POINT('',(-2.765E1,-1.5E0,0.E0));
#83=LINE('',#82,#81);
#84=DIRECTION('',(0.E0,0.E0,-1.E0));
#85=VECTOR('',#84,6.E-1);
#86=CARTESIAN_POINT('',(-2.235E1,7.675E0,6.E-1));
#87=LINE('',#86,#85);
#88=DIRECTION('',(0.E0,0.E0,-1.E0));
#89=VECTOR('',#88,6.E-1);
#90=CARTESIAN_POINT('',(-2.235E1,-7.675E0,6.E-1));
#91=LINE('',#90,#89);
#92=DIRECTION('',(0.E0,0.E0,-1.E0));
#93=VECTOR('',#92,6.E-1);
#94=CARTESIAN_POINT('',(2.235E1,-7.675E0,6.E-1));
#95=LINE('',#94,#93);
#96=DIRECTION('',(0.E0,0.E0,-1.E0));
#97=VECTOR('',#96,6.E-1);
#98=CARTESIAN_POINT('',(2.235E1,7.675E0,6.E-1));
#99=LINE('',#98,#97);
#100=DIRECTION('',(0.E0,-1.E0,0.E0));
#101=VECTOR('',#100,1.535E1);
#102=CARTESIAN_POINT('',(-2.235E1,7.675E0,6.E-1));
#103=LINE('',#102,#101);
#104=DIRECTION('',(1.E0,0.E0,0.E0));
#105=VECTOR('',#104,4.47E1);
#106=CARTESIAN_POINT('',(-2.235E1,-7.675E0,6.E-1));
#107=LINE('',#106,#105);
#108=DIRECTION('',(0.E0,1.E0,0.E0));
#109=VECTOR('',#108,1.535E1);
#110=CARTESIAN_POINT('',(2.235E1,-7.675E0,6.E-1));
#111=LINE('',#110,#109);
#112=DIRECTION('',(-1.E0,0.E0,0.E0));
#113=VECTOR('',#112,4.47E1);
#114=CARTESIAN_POINT('',(2.235E1,7.675E0,6.E-1));
#115=LINE('',#114,#113);
#116=DIRECTION('',(7.071067811865E-1,-7.071067811865E-1,0.E0));
#117=VECTOR('',#116,2.828427124746E0);
#118=CARTESIAN_POINT('',(-2.765E1,-7.1E0,6.E-1));
#119=LINE('',#118,#117);
#120=DIRECTION('',(0.E0,-1.E0,0.E0));
#121=VECTOR('',#120,5.6E0);
#122=CARTESIAN_POINT('',(-2.765E1,-1.5E0,6.E-1));
#123=LINE('',#122,#121);
#124=DIRECTION('',(1.E0,0.E0,0.E0));
#125=VECTOR('',#124,2.65E0);
#126=CARTESIAN_POINT('',(-2.765E1,-1.5E0,6.E-1));
#127=LINE('',#126,#125);
#128=CARTESIAN_POINT('',(-2.5E1,0.E0,6.E-1));
#129=DIRECTION('',(0.E0,0.E0,1.E0));
#130=DIRECTION('',(0.E0,-1.E0,0.E0));
#131=AXIS2_PLACEMENT_3D('',#128,#129,#130);
#133=DIRECTION('',(-1.E0,0.E0,0.E0));
#134=VECTOR('',#133,2.65E0);
#135=CARTESIAN_POINT('',(-2.5E1,1.5E0,6.E-1));
#136=LINE('',#135,#134);
#137=DIRECTION('',(0.E0,-1.E0,0.E0));
#138=VECTOR('',#137,5.6E0);
#139=CARTESIAN_POINT('',(-2.765E1,7.1E0,6.E-1));
#140=LINE('',#139,#138);
#141=DIRECTION('',(-7.071067811865E-1,-7.071067811865E-1,0.E0));
#142=VECTOR('',#141,2.828427124746E0);
#143=CARTESIAN_POINT('',(-2.565E1,9.1E0,6.E-1));
#144=LINE('',#143,#142);
#145=DIRECTION('',(-1.E0,0.E0,0.E0));
#146=VECTOR('',#145,5.13E1);
#147=CARTESIAN_POINT('',(2.565E1,9.1E0,6.E-1));
#148=LINE('',#147,#146);
#149=DIRECTION('',(-7.071067811865E-1,7.071067811865E-1,0.E0));
#150=VECTOR('',#149,2.828427124746E0);
#151=CARTESIAN_POINT('',(2.765E1,7.1E0,6.E-1));
#152=LINE('',#151,#150);
#153=DIRECTION('',(0.E0,1.E0,0.E0));
#154=VECTOR('',#153,5.6E0);
#155=CARTESIAN_POINT('',(2.765E1,1.5E0,6.E-1));
#156=LINE('',#155,#154);
#157=DIRECTION('',(-1.E0,0.E0,0.E0));
#158=VECTOR('',#157,2.65E0);
#159=CARTESIAN_POINT('',(2.765E1,1.5E0,6.E-1));
#160=LINE('',#159,#158);
#161=CARTESIAN_POINT('',(2.5E1,0.E0,6.E-1));
#162=DIRECTION('',(0.E0,0.E0,1.E0));
#163=DIRECTION('',(0.E0,1.E0,0.E0));
#164=AXIS2_PLACEMENT_3D('',#161,#162,#163);
#166=DIRECTION('',(1.E0,0.E0,0.E0));
#167=VECTOR('',#166,2.65E0);
#168=CARTESIAN_POINT('',(2.5E1,-1.5E0,6.E-1));
#169=LINE('',#168,#167);
#170=DIRECTION('',(0.E0,1.E0,0.E0));
#171=VECTOR('',#170,5.6E0);
#172=CARTESIAN_POINT('',(2.765E1,-7.1E0,6.E-1));
#173=LINE('',#172,#171);
#174=DIRECTION('',(7.071067811865E-1,7.071067811865E-1,0.E0));
#175=VECTOR('',#174,2.828427124746E0);
#176=CARTESIAN_POINT('',(2.565E1,-9.1E0,6.E-1));
#177=LINE('',#176,#175);
#178=DIRECTION('',(1.E0,0.E0,0.E0));
#179=VECTOR('',#178,5.13E1);
#180=CARTESIAN_POINT('',(-2.565E1,-9.1E0,6.E-1));
#181=LINE('',#180,#179);
#182=DIRECTION('',(0.E0,0.E0,-1.E0));
#183=VECTOR('',#182,6.E-1);
#184=CARTESIAN_POINT('',(-2.765E1,-7.1E0,6.E-1));
#185=LINE('',#184,#183);
#186=DIRECTION('',(0.E0,0.E0,1.E0));
#187=VECTOR('',#186,6.E-1);
#188=CARTESIAN_POINT('',(-2.765E1,-1.5E0,0.E0));
#189=LINE('',#188,#187);
#190=DIRECTION('',(0.E0,0.E0,-1.E0));
#191=VECTOR('',#190,6.E-1);
#192=CARTESIAN_POINT('',(-2.765E1,7.1E0,6.E-1));
#193=LINE('',#192,#191);
#194=DIRECTION('',(0.E0,0.E0,1.E0));
#195=VECTOR('',#194,6.E-1);
#196=CARTESIAN_POINT('',(-2.765E1,1.5E0,0.E0));
#197=LINE('',#196,#195);
#198=DIRECTION('',(0.E0,0.E0,-1.E0));
#199=VECTOR('',#198,6.E-1);
#200=CARTESIAN_POINT('',(-2.5E1,-1.5E0,6.E-1));
#201=LINE('',#200,#199);
#202=DIRECTION('',(0.E0,0.E0,-1.E0));
#203=VECTOR('',#202,6.E-1);
#204=CARTESIAN_POINT('',(-2.5E1,1.5E0,6.E-1));
#205=LINE('',#204,#203);
#206=DIRECTION('',(0.E0,0.E0,-1.E0));
#207=VECTOR('',#206,6.E-1);
#208=CARTESIAN_POINT('',(-2.565E1,9.1E0,6.E-1));
#209=LINE('',#208,#207);
#210=DIRECTION('',(0.E0,0.E0,-1.E0));
#211=VECTOR('',#210,6.E-1);
#212=CARTESIAN_POINT('',(2.565E1,9.1E0,6.E-1));
#213=LINE('',#212,#211);
#214=DIRECTION('',(0.E0,0.E0,-1.E0));
#215=VECTOR('',#214,6.E-1);
#216=CARTESIAN_POINT('',(2.765E1,-7.1E0,6.E-1));
#217=LINE('',#216,#215);
#218=DIRECTION('',(0.E0,0.E0,1.E0));
#219=VECTOR('',#218,6.E-1);
#220=CARTESIAN_POINT('',(2.765E1,-1.5E0,0.E0));
#221=LINE('',#220,#219);
#222=DIRECTION('',(0.E0,0.E0,-1.E0));
#223=VECTOR('',#222,6.E-1);
#224=CARTESIAN_POINT('',(2.765E1,7.1E0,6.E-1));
#225=LINE('',#224,#223);
#226=DIRECTION('',(0.E0,0.E0,1.E0));
#227=VECTOR('',#226,6.E-1);
#228=CARTESIAN_POINT('',(2.765E1,1.5E0,0.E0));
#229=LINE('',#228,#227);
#230=DIRECTION('',(0.E0,0.E0,-1.E0));
#231=VECTOR('',#230,6.E-1);
#232=CARTESIAN_POINT('',(-2.565E1,-9.1E0,6.E-1));
#233=LINE('',#232,#231);
#234=DIRECTION('',(0.E0,0.E0,-1.E0));
#235=VECTOR('',#234,6.E-1);
#236=CARTESIAN_POINT('',(2.565E1,-9.1E0,6.E-1));
#237=LINE('',#236,#235);
#238=DIRECTION('',(0.E0,0.E0,-1.E0));
#239=VECTOR('',#238,6.E-1);
#240=CARTESIAN_POINT('',(2.5E1,-1.5E0,6.E-1));
#241=LINE('',#240,#239);
#242=DIRECTION('',(0.E0,0.E0,-1.E0));
#243=VECTOR('',#242,6.E-1);
#244=CARTESIAN_POINT('',(2.5E1,1.5E0,6.E-1));
#245=LINE('',#244,#243);
#246=CARTESIAN_POINT('',(-2.235E1,7.675E0,0.E0));
#247=CARTESIAN_POINT('',(-2.235E1,-7.675E0,0.E0));
#248=VERTEX_POINT('',#246);
#249=VERTEX_POINT('',#247);
#250=CARTESIAN_POINT('',(2.235E1,-7.675E0,0.E0));
#251=VERTEX_POINT('',#250);
#252=CARTESIAN_POINT('',(2.235E1,7.675E0,0.E0));
#253=VERTEX_POINT('',#252);
#254=CARTESIAN_POINT('',(-2.235E1,7.675E0,6.E-1));
#255=CARTESIAN_POINT('',(-2.235E1,-7.675E0,6.E-1));
#256=VERTEX_POINT('',#254);
#257=VERTEX_POINT('',#255);
#258=CARTESIAN_POINT('',(2.235E1,-7.675E0,6.E-1));
#259=VERTEX_POINT('',#258);
#260=CARTESIAN_POINT('',(2.235E1,7.675E0,6.E-1));
#261=VERTEX_POINT('',#260);
#262=CARTESIAN_POINT('',(-2.5E1,1.5E0,0.E0));
#263=CARTESIAN_POINT('',(-2.765E1,1.5E0,0.E0));
#264=VERTEX_POINT('',#262);
#265=VERTEX_POINT('',#263);
#266=CARTESIAN_POINT('',(-2.765E1,-1.5E0,0.E0));
#267=CARTESIAN_POINT('',(-2.5E1,-1.5E0,0.E0));
#268=VERTEX_POINT('',#266);
#269=VERTEX_POINT('',#267);
#270=CARTESIAN_POINT('',(2.5E1,1.5E0,0.E0));
#271=CARTESIAN_POINT('',(2.5E1,-1.5E0,0.E0));
#272=VERTEX_POINT('',#270);
#273=VERTEX_POINT('',#271);
#274=CARTESIAN_POINT('',(2.765E1,-1.5E0,0.E0));
#275=VERTEX_POINT('',#274);
#276=CARTESIAN_POINT('',(2.765E1,1.5E0,0.E0));
#277=VERTEX_POINT('',#276);
#278=CARTESIAN_POINT('',(-2.5E1,1.5E0,6.E-1));
#279=CARTESIAN_POINT('',(-2.765E1,1.5E0,6.E-1));
#280=VERTEX_POINT('',#278);
#281=VERTEX_POINT('',#279);
#282=CARTESIAN_POINT('',(-2.765E1,-1.5E0,6.E-1));
#283=CARTESIAN_POINT('',(-2.5E1,-1.5E0,6.E-1));
#284=VERTEX_POINT('',#282);
#285=VERTEX_POINT('',#283);
#286=CARTESIAN_POINT('',(2.5E1,1.5E0,6.E-1));
#287=CARTESIAN_POINT('',(2.5E1,-1.5E0,6.E-1));
#288=VERTEX_POINT('',#286);
#289=VERTEX_POINT('',#287);
#290=CARTESIAN_POINT('',(2.765E1,-1.5E0,6.E-1));
#291=VERTEX_POINT('',#290);
#292=CARTESIAN_POINT('',(2.765E1,1.5E0,6.E-1));
#293=VERTEX_POINT('',#292);
#294=CARTESIAN_POINT('',(-2.565E1,-9.1E0,0.E0));
#295=CARTESIAN_POINT('',(-2.765E1,-7.1E0,0.E0));
#296=VERTEX_POINT('',#294);
#297=VERTEX_POINT('',#295);
#298=CARTESIAN_POINT('',(-2.765E1,-7.1E0,6.E-1));
#299=VERTEX_POINT('',#298);
#300=CARTESIAN_POINT('',(-2.565E1,-9.1E0,6.E-1));
#301=VERTEX_POINT('',#300);
#302=CARTESIAN_POINT('',(-2.765E1,7.1E0,0.E0));
#303=CARTESIAN_POINT('',(-2.565E1,9.1E0,0.E0));
#304=VERTEX_POINT('',#302);
#305=VERTEX_POINT('',#303);
#306=CARTESIAN_POINT('',(-2.565E1,9.1E0,6.E-1));
#307=VERTEX_POINT('',#306);
#308=CARTESIAN_POINT('',(-2.765E1,7.1E0,6.E-1));
#309=VERTEX_POINT('',#308);
#310=CARTESIAN_POINT('',(2.765E1,-7.1E0,0.E0));
#311=CARTESIAN_POINT('',(2.565E1,-9.1E0,0.E0));
#312=VERTEX_POINT('',#310);
#313=VERTEX_POINT('',#311);
#314=CARTESIAN_POINT('',(2.565E1,-9.1E0,6.E-1));
#315=VERTEX_POINT('',#314);
#316=CARTESIAN_POINT('',(2.765E1,-7.1E0,6.E-1));
#317=VERTEX_POINT('',#316);
#318=CARTESIAN_POINT('',(2.565E1,9.1E0,0.E0));
#319=CARTESIAN_POINT('',(2.765E1,7.1E0,0.E0));
#320=VERTEX_POINT('',#318);
#321=VERTEX_POINT('',#319);
#322=CARTESIAN_POINT('',(2.765E1,7.1E0,6.E-1));
#323=VERTEX_POINT('',#322);
#324=CARTESIAN_POINT('',(2.565E1,9.1E0,6.E-1));
#325=VERTEX_POINT('',#324);
#326=CARTESIAN_POINT('',(0.E0,0.E0,0.E0));
#327=DIRECTION('',(0.E0,0.E0,1.E0));
#328=DIRECTION('',(1.E0,0.E0,0.E0));
#329=AXIS2_PLACEMENT_3D('',#326,#327,#328);
#330=PLANE('',#329);
#332=ORIENTED_EDGE('',*,*,#331,.F.);
#334=ORIENTED_EDGE('',*,*,#333,.T.);
#336=ORIENTED_EDGE('',*,*,#335,.F.);
#338=ORIENTED_EDGE('',*,*,#337,.T.);
#340=ORIENTED_EDGE('',*,*,#339,.F.);
#342=ORIENTED_EDGE('',*,*,#341,.F.);
#344=ORIENTED_EDGE('',*,*,#343,.F.);
#346=ORIENTED_EDGE('',*,*,#345,.T.);
#348=ORIENTED_EDGE('',*,*,#347,.F.);
#350=ORIENTED_EDGE('',*,*,#349,.T.);
#352=ORIENTED_EDGE('',*,*,#351,.F.);
#354=ORIENTED_EDGE('',*,*,#353,.T.);
#356=ORIENTED_EDGE('',*,*,#355,.F.);
#358=ORIENTED_EDGE('',*,*,#357,.F.);
#360=ORIENTED_EDGE('',*,*,#359,.F.);
#362=ORIENTED_EDGE('',*,*,#361,.T.);
#363=EDGE_LOOP('',(#332,#334,#336,#338,#340,#342,#344,#346,#348,#350,#352,#354,
#356,#358,#360,#362));
#364=FACE_OUTER_BOUND('',#363,.F.);
#366=ORIENTED_EDGE('',*,*,#365,.F.);
#368=ORIENTED_EDGE('',*,*,#367,.F.);
#370=ORIENTED_EDGE('',*,*,#369,.F.);
#372=ORIENTED_EDGE('',*,*,#371,.F.);
#373=EDGE_LOOP('',(#366,#368,#370,#372));
#374=FACE_BOUND('',#373,.F.);
#375=ADVANCED_FACE('',(#364,#374),#330,.F.);
#376=CARTESIAN_POINT('',(-2.235E1,7.675E0,6.E-1));
#377=DIRECTION('',(-1.E0,0.E0,0.E0));
#378=DIRECTION('',(0.E0,-1.E0,0.E0));
#379=AXIS2_PLACEMENT_3D('',#376,#377,#378);
#380=PLANE('',#379);
#381=ORIENTED_EDGE('',*,*,#365,.T.);
#383=ORIENTED_EDGE('',*,*,#382,.F.);
#385=ORIENTED_EDGE('',*,*,#384,.F.);
#387=ORIENTED_EDGE('',*,*,#386,.T.);
#388=EDGE_LOOP('',(#381,#383,#385,#387));
#389=FACE_OUTER_BOUND('',#388,.F.);
#390=ADVANCED_FACE('',(#389),#380,.F.);
#391=CARTESIAN_POINT('',(-2.235E1,-7.675E0,6.E-1));
#392=DIRECTION('',(0.E0,-1.E0,0.E0));
#393=DIRECTION('',(1.E0,0.E0,0.E0));
#394=AXIS2_PLACEMENT_3D('',#391,#392,#393);
#395=PLANE('',#394);
#396=ORIENTED_EDGE('',*,*,#371,.T.);
#398=ORIENTED_EDGE('',*,*,#397,.F.);
#400=ORIENTED_EDGE('',*,*,#399,.F.);
#401=ORIENTED_EDGE('',*,*,#382,.T.);
#402=EDGE_LOOP('',(#396,#398,#400,#401));
#403=FACE_OUTER_BOUND('',#402,.F.);
#404=ADVANCED_FACE('',(#403),#395,.F.);
#405=CARTESIAN_POINT('',(2.235E1,-7.675E0,6.E-1));
#406=DIRECTION('',(1.E0,0.E0,0.E0));
#407=DIRECTION('',(0.E0,1.E0,0.E0));
#408=AXIS2_PLACEMENT_3D('',#405,#406,#407);
#409=PLANE('',#408);
#410=ORIENTED_EDGE('',*,*,#369,.T.);
#412=ORIENTED_EDGE('',*,*,#411,.F.);
#414=ORIENTED_EDGE('',*,*,#413,.F.);
#415=ORIENTED_EDGE('',*,*,#397,.T.);
#416=EDGE_LOOP('',(#410,#412,#414,#415));
#417=FACE_OUTER_BOUND('',#416,.F.);
#418=ADVANCED_FACE('',(#417),#409,.F.);
#419=CARTESIAN_POINT('',(2.235E1,7.675E0,6.E-1));
#420=DIRECTION('',(0.E0,1.E0,0.E0));
#421=DIRECTION('',(-1.E0,0.E0,0.E0));
#422=AXIS2_PLACEMENT_3D('',#419,#420,#421);
#423=PLANE('',#422);
#424=ORIENTED_EDGE('',*,*,#367,.T.);
#425=ORIENTED_EDGE('',*,*,#386,.F.);
#427=ORIENTED_EDGE('',*,*,#426,.F.);
#428=ORIENTED_EDGE('',*,*,#411,.T.);
#429=EDGE_LOOP('',(#424,#425,#427,#428));
#430=FACE_OUTER_BOUND('',#429,.F.);
#431=ADVANCED_FACE('',(#430),#423,.F.);
#432=CARTESIAN_POINT('',(0.E0,0.E0,6.E-1));
#433=DIRECTION('',(0.E0,0.E0,1.E0));
#434=DIRECTION('',(1.E0,0.E0,0.E0));
#435=AXIS2_PLACEMENT_3D('',#432,#433,#434);
#436=PLANE('',#435);
#438=ORIENTED_EDGE('',*,*,#437,.F.);
#440=ORIENTED_EDGE('',*,*,#439,.F.);
#442=ORIENTED_EDGE('',*,*,#441,.T.);
#444=ORIENTED_EDGE('',*,*,#443,.T.);
#446=ORIENTED_EDGE('',*,*,#445,.T.);
#448=ORIENTED_EDGE('',*,*,#447,.F.);
#450=ORIENTED_EDGE('',*,*,#449,.F.);
#452=ORIENTED_EDGE('',*,*,#451,.F.);
#454=ORIENTED_EDGE('',*,*,#453,.F.);
#456=ORIENTED_EDGE('',*,*,#455,.F.);
#458=ORIENTED_EDGE('',*,*,#457,.T.);
#460=ORIENTED_EDGE('',*,*,#459,.T.);
#462=ORIENTED_EDGE('',*,*,#461,.T.);
#464=ORIENTED_EDGE('',*,*,#463,.F.);
#466=ORIENTED_EDGE('',*,*,#465,.F.);
#468=ORIENTED_EDGE('',*,*,#467,.F.);
#469=EDGE_LOOP('',(#438,#440,#442,#444,#446,#448,#450,#452,#454,#456,#458,#460,
#462,#464,#466,#468));
#470=FACE_OUTER_BOUND('',#469,.F.);
#471=ORIENTED_EDGE('',*,*,#384,.T.);
#472=ORIENTED_EDGE('',*,*,#399,.T.);
#473=ORIENTED_EDGE('',*,*,#413,.T.);
#474=ORIENTED_EDGE('',*,*,#426,.T.);
#475=EDGE_LOOP('',(#471,#472,#473,#474));
#476=FACE_BOUND('',#475,.F.);
#477=ADVANCED_FACE('',(#470,#476),#436,.T.);
#478=CARTESIAN_POINT('',(-2.665E1,-8.1E0,3.E-1));
#479=DIRECTION('',(-7.071067811865E-1,-7.071067811865E-1,0.E0));
#480=DIRECTION('',(-7.071067811865E-1,7.071067811865E-1,0.E0));
#481=AXIS2_PLACEMENT_3D('',#478,#479,#480);
#482=PLANE('',#481);
#483=ORIENTED_EDGE('',*,*,#331,.T.);
#485=ORIENTED_EDGE('',*,*,#484,.F.);
#486=ORIENTED_EDGE('',*,*,#437,.T.);
#488=ORIENTED_EDGE('',*,*,#487,.T.);
#489=EDGE_LOOP('',(#483,#485,#486,#488));
#490=FACE_OUTER_BOUND('',#489,.F.);
#491=ADVANCED_FACE('',(#490),#482,.T.);
#492=CARTESIAN_POINT('',(-2.765E1,9.1E0,0.E0));
#493=DIRECTION('',(-1.E0,0.E0,0.E0));
#494=DIRECTION('',(0.E0,-1.E0,0.E0));
#495=AXIS2_PLACEMENT_3D('',#492,#493,#494);
#496=PLANE('',#495);
#497=ORIENTED_EDGE('',*,*,#484,.T.);
#498=ORIENTED_EDGE('',*,*,#361,.F.);
#500=ORIENTED_EDGE('',*,*,#499,.T.);
#501=ORIENTED_EDGE('',*,*,#439,.T.);
#502=EDGE_LOOP('',(#497,#498,#500,#501));
#503=FACE_OUTER_BOUND('',#502,.F.);
#504=ADVANCED_FACE('',(#503),#496,.T.);
#505=CARTESIAN_POINT('',(-2.765E1,9.1E0,0.E0));
#506=DIRECTION('',(-1.E0,0.E0,0.E0));
#507=DIRECTION('',(0.E0,-1.E0,0.E0));
#508=AXIS2_PLACEMENT_3D('',#505,#506,#507);
#509=PLANE('',#508);
#511=ORIENTED_EDGE('',*,*,#510,.F.);
#512=ORIENTED_EDGE('',*,*,#447,.T.);
#514=ORIENTED_EDGE('',*,*,#513,.F.);
#515=ORIENTED_EDGE('',*,*,#353,.F.);
#516=EDGE_LOOP('',(#511,#512,#514,#515));
#517=FACE_OUTER_BOUND('',#516,.F.);
#518=ADVANCED_FACE('',(#517),#509,.T.);
#519=CARTESIAN_POINT('',(-2.765E1,-1.5E0,6.E-1));
#520=DIRECTION('',(0.E0,-1.E0,0.E0));
#521=DIRECTION('',(1.E0,0.E0,0.E0));
#522=AXIS2_PLACEMENT_3D('',#519,#520,#521);
#523=PLANE('',#522);
#524=ORIENTED_EDGE('',*,*,#359,.T.);
#526=ORIENTED_EDGE('',*,*,#525,.F.);
#527=ORIENTED_EDGE('',*,*,#441,.F.);
#528=ORIENTED_EDGE('',*,*,#499,.F.);
#529=EDGE_LOOP('',(#524,#526,#527,#528));
#530=FACE_OUTER_BOUND('',#529,.F.);
#531=ADVANCED_FACE('',(#530),#523,.F.);
#532=CARTESIAN_POINT('',(-2.5E1,0.E0,6.E-1));
#533=DIRECTION('',(0.E0,0.E0,1.E0));
#534=DIRECTION('',(1.E0,0.E0,0.E0));
#535=AXIS2_PLACEMENT_3D('',#532,#533,#534);
#536=CYLINDRICAL_SURFACE('',#535,1.5E0);
#537=ORIENTED_EDGE('',*,*,#357,.T.);
#539=ORIENTED_EDGE('',*,*,#538,.F.);
#540=ORIENTED_EDGE('',*,*,#443,.F.);
#541=ORIENTED_EDGE('',*,*,#525,.T.);
#542=EDGE_LOOP('',(#537,#539,#540,#541));
#543=FACE_OUTER_BOUND('',#542,.F.);
#544=ADVANCED_FACE('',(#543),#536,.F.);
#545=CARTESIAN_POINT('',(-2.5E1,1.5E0,6.E-1));
#546=DIRECTION('',(0.E0,1.E0,0.E0));
#547=DIRECTION('',(-1.E0,0.E0,0.E0));
#548=AXIS2_PLACEMENT_3D('',#545,#546,#547);
#549=PLANE('',#548);
#550=ORIENTED_EDGE('',*,*,#355,.T.);
#551=ORIENTED_EDGE('',*,*,#513,.T.);
#552=ORIENTED_EDGE('',*,*,#445,.F.);
#553=ORIENTED_EDGE('',*,*,#538,.T.);
#554=EDGE_LOOP('',(#550,#551,#552,#553));
#555=FACE_OUTER_BOUND('',#554,.F.);
#556=ADVANCED_FACE('',(#555),#549,.F.);
#557=CARTESIAN_POINT('',(-2.665E1,8.1E0,3.E-1));
#558=DIRECTION('',(-7.071067811865E-1,7.071067811865E-1,0.E0));
#559=DIRECTION('',(7.071067811865E-1,7.071067811865E-1,0.E0));
#560=AXIS2_PLACEMENT_3D('',#557,#558,#559);
#561=PLANE('',#560);
#562=ORIENTED_EDGE('',*,*,#351,.T.);
#564=ORIENTED_EDGE('',*,*,#563,.F.);
#565=ORIENTED_EDGE('',*,*,#449,.T.);
#566=ORIENTED_EDGE('',*,*,#510,.T.);
#567=EDGE_LOOP('',(#562,#564,#565,#566));
#568=FACE_OUTER_BOUND('',#567,.F.);
#569=ADVANCED_FACE('',(#568),#561,.T.);
#570=CARTESIAN_POINT('',(2.765E1,9.1E0,0.E0));
#571=DIRECTION('',(0.E0,1.E0,0.E0));
#572=DIRECTION('',(-1.E0,0.E0,0.E0));
#573=AXIS2_PLACEMENT_3D('',#570,#571,#572);
#574=PLANE('',#573);
#575=ORIENTED_EDGE('',*,*,#563,.T.);
#576=ORIENTED_EDGE('',*,*,#349,.F.);
#578=ORIENTED_EDGE('',*,*,#577,.F.);
#579=ORIENTED_EDGE('',*,*,#451,.T.);
#580=EDGE_LOOP('',(#575,#576,#578,#579));
#581=FACE_OUTER_BOUND('',#580,.F.);
#582=ADVANCED_FACE('',(#581),#574,.T.);
#583=CARTESIAN_POINT('',(2.665E1,8.1E0,3.E-1));
#584=DIRECTION('',(7.071067811865E-1,7.071067811865E-1,0.E0));
#585=DIRECTION('',(7.071067811865E-1,-7.071067811865E-1,0.E0));
#586=AXIS2_PLACEMENT_3D('',#583,#584,#585);
#587=PLANE('',#586);
#588=ORIENTED_EDGE('',*,*,#347,.T.);
#590=ORIENTED_EDGE('',*,*,#589,.F.);
#591=ORIENTED_EDGE('',*,*,#453,.T.);
#592=ORIENTED_EDGE('',*,*,#577,.T.);
#593=EDGE_LOOP('',(#588,#590,#591,#592));
#594=FACE_OUTER_BOUND('',#593,.F.);
#595=ADVANCED_FACE('',(#594),#587,.T.);
#596=CARTESIAN_POINT('',(2.765E1,-9.1E0,0.E0));
#597=DIRECTION('',(1.E0,0.E0,0.E0));
#598=DIRECTION('',(0.E0,1.E0,0.E0));
#599=AXIS2_PLACEMENT_3D('',#596,#597,#598);
#600=PLANE('',#599);
#602=ORIENTED_EDGE('',*,*,#601,.F.);
#603=ORIENTED_EDGE('',*,*,#463,.T.);
#605=ORIENTED_EDGE('',*,*,#604,.F.);
#606=ORIENTED_EDGE('',*,*,#337,.F.);
#607=EDGE_LOOP('',(#602,#603,#605,#606));
#608=FACE_OUTER_BOUND('',#607,.F.);
#609=ADVANCED_FACE('',(#608),#600,.T.);
#610=CARTESIAN_POINT('',(2.765E1,-9.1E0,0.E0));
#611=DIRECTION('',(1.E0,0.E0,0.E0));
#612=DIRECTION('',(0.E0,1.E0,0.E0));
#613=AXIS2_PLACEMENT_3D('',#610,#611,#612);
#614=PLANE('',#613);
#615=ORIENTED_EDGE('',*,*,#589,.T.);
#616=ORIENTED_EDGE('',*,*,#345,.F.);
#618=ORIENTED_EDGE('',*,*,#617,.T.);
#619=ORIENTED_EDGE('',*,*,#455,.T.);
#620=EDGE_LOOP('',(#615,#616,#618,#619));
#621=FACE_OUTER_BOUND('',#620,.F.);
#622=ADVANCED_FACE('',(#621),#614,.T.);
#623=CARTESIAN_POINT('',(2.665E1,-8.1E0,3.E-1));
#624=DIRECTION('',(7.071067811865E-1,-7.071067811865E-1,0.E0));
#625=DIRECTION('',(-7.071067811865E-1,-7.071067811865E-1,0.E0));
#626=AXIS2_PLACEMENT_3D('',#623,#624,#625);
#627=PLANE('',#626);
#628=ORIENTED_EDGE('',*,*,#335,.T.);
#630=ORIENTED_EDGE('',*,*,#629,.F.);
#631=ORIENTED_EDGE('',*,*,#465,.T.);
#632=ORIENTED_EDGE('',*,*,#601,.T.);
#633=EDGE_LOOP('',(#628,#630,#631,#632));
#634=FACE_OUTER_BOUND('',#633,.F.);
#635=ADVANCED_FACE('',(#634),#627,.T.);
#636=CARTESIAN_POINT('',(-2.765E1,-9.1E0,0.E0));
#637=DIRECTION('',(0.E0,-1.E0,0.E0));
#638=DIRECTION('',(1.E0,0.E0,0.E0));
#639=AXIS2_PLACEMENT_3D('',#636,#637,#638);
#640=PLANE('',#639);
#641=ORIENTED_EDGE('',*,*,#487,.F.);
#642=ORIENTED_EDGE('',*,*,#467,.T.);
#643=ORIENTED_EDGE('',*,*,#629,.T.);
#644=ORIENTED_EDGE('',*,*,#333,.F.);
#645=EDGE_LOOP('',(#641,#642,#643,#644));
#646=FACE_OUTER_BOUND('',#645,.F.);
#647=ADVANCED_FACE('',(#646),#640,.T.);
#648=CARTESIAN_POINT('',(2.5E1,-1.5E0,6.E-1));
#649=DIRECTION('',(0.E0,-1.E0,0.E0));
#650=DIRECTION('',(1.E0,0.E0,0.E0));
#651=AXIS2_PLACEMENT_3D('',#648,#649,#650);
#652=PLANE('',#651);
#653=ORIENTED_EDGE('',*,*,#339,.T.);
#654=ORIENTED_EDGE('',*,*,#604,.T.);
#655=ORIENTED_EDGE('',*,*,#461,.F.);
#657=ORIENTED_EDGE('',*,*,#656,.T.);
#658=EDGE_LOOP('',(#653,#654,#655,#657));
#659=FACE_OUTER_BOUND('',#658,.F.);
#660=ADVANCED_FACE('',(#659),#652,.F.);
#661=CARTESIAN_POINT('',(2.5E1,0.E0,6.E-1));
#662=DIRECTION('',(0.E0,0.E0,1.E0));
#663=DIRECTION('',(1.E0,0.E0,0.E0));
#664=AXIS2_PLACEMENT_3D('',#661,#662,#663);
#665=CYLINDRICAL_SURFACE('',#664,1.5E0);
#666=ORIENTED_EDGE('',*,*,#341,.T.);
#667=ORIENTED_EDGE('',*,*,#656,.F.);
#668=ORIENTED_EDGE('',*,*,#459,.F.);
#670=ORIENTED_EDGE('',*,*,#669,.T.);
#671=EDGE_LOOP('',(#666,#667,#668,#670));
#672=FACE_OUTER_BOUND('',#671,.F.);
#673=ADVANCED_FACE('',(#672),#665,.F.);
#674=CARTESIAN_POINT('',(2.765E1,1.5E0,6.E-1));
#675=DIRECTION('',(0.E0,1.E0,0.E0));
#676=DIRECTION('',(-1.E0,0.E0,0.E0));
#677=AXIS2_PLACEMENT_3D('',#674,#675,#676);
#678=PLANE('',#677);
#679=ORIENTED_EDGE('',*,*,#343,.T.);
#680=ORIENTED_EDGE('',*,*,#669,.F.);
#681=ORIENTED_EDGE('',*,*,#457,.F.);
#682=ORIENTED_EDGE('',*,*,#617,.F.);
#683=EDGE_LOOP('',(#679,#680,#681,#682));
#684=FACE_OUTER_BOUND('',#683,.F.);
#685=ADVANCED_FACE('',(#684),#678,.F.);
#686=CLOSED_SHELL('',(#375,#390,#404,#418,#431,#477,#491,#504,#518,#531,#544,
#556,#569,#582,#595,#609,#622,#635,#647,#660,#673,#685));
#687=MANIFOLD_SOLID_BREP('',#686);
#689=DIMENSIONAL_EXPONENTS(0.E0,0.E0,0.E0,0.E0,0.E0,0.E0,0.E0);
#691=PLANE_ANGLE_MEASURE_WITH_UNIT(PLANE_ANGLE_MEASURE(1.745329251994E-2),#690);
#692=(CONVERSION_BASED_UNIT('DEGREE',#691)NAMED_UNIT(*)PLANE_ANGLE_UNIT());
#694=UNCERTAINTY_MEASURE_WITH_UNIT(LENGTH_MEASURE(6.403718622346E-3),#688,
'closure',
'Maximum model space distance between geometric entities at asserted connectivities');
#695=(GEOMETRIC_REPRESENTATION_CONTEXT(3)GLOBAL_UNCERTAINTY_ASSIGNED_CONTEXT((
#694))GLOBAL_UNIT_ASSIGNED_CONTEXT((#688,#692,#693))REPRESENTATION_CONTEXT
('ID1','3'));
#697=APPLICATION_CONTEXT(
'CONFIGURATION CONTROLLED 3D DESIGNS OF MECHANICAL PARTS AND ASSEMBLIES');
#698=APPLICATION_PROTOCOL_DEFINITION('international standard',
'config_control_design',1994,#697);
#699=DESIGN_CONTEXT('',#697,'design');
#700=MECHANICAL_CONTEXT('',#697,'mechanical');
#701=PRODUCT('3350_0202_501','3350_0202_501','NOT SPECIFIED',(#700));
#702=PRODUCT_DEFINITION_FORMATION_WITH_SPECIFIED_SOURCE('1','LAST_VERSION',#701,
.MADE.);
#706=PRODUCT_CATEGORY('part','');
#707=PRODUCT_RELATED_PRODUCT_CATEGORY('detail','',(#701));
#708=PRODUCT_CATEGORY_RELATIONSHIP('','',#706,#707);
#709=SECURITY_CLASSIFICATION_LEVEL('unclassified');
#710=SECURITY_CLASSIFICATION('','',#709);
#711=CC_DESIGN_SECURITY_CLASSIFICATION(#710,(#702));
#712=APPROVAL_STATUS('approved');
#713=APPROVAL(#712,'');
#714=CC_DESIGN_APPROVAL(#713,(#710,#702,#703));
#715=CALENDAR_DATE(120,31,1);
#716=COORDINATED_UNIVERSAL_TIME_OFFSET(1,0,.AHEAD.);
#717=LOCAL_TIME(10,57,9.E0,#716);
#718=DATE_AND_TIME(#715,#717);
#719=APPROVAL_DATE_TIME(#718,#713);
#720=DATE_TIME_ROLE('creation_date');
#721=CC_DESIGN_DATE_AND_TIME_ASSIGNMENT(#718,#720,(#703));
#722=DATE_TIME_ROLE('classification_date');
#723=CC_DESIGN_DATE_AND_TIME_ASSIGNMENT(#718,#722,(#710));
#724=PERSON('UNSPECIFIED','UNSPECIFIED',$,$,$,$);
#725=ORGANIZATION('UNSPECIFIED','UNSPECIFIED','UNSPECIFIED');
#726=PERSON_AND_ORGANIZATION(#724,#725);
#727=APPROVAL_ROLE('approver');
#728=APPROVAL_PERSON_ORGANIZATION(#726,#713,#727);
#729=PERSON_AND_ORGANIZATION_ROLE('creator');
#730=CC_DESIGN_PERSON_AND_ORGANIZATION_ASSIGNMENT(#726,#729,(#702,#703));
#731=PERSON_AND_ORGANIZATION_ROLE('design_supplier');
#732=CC_DESIGN_PERSON_AND_ORGANIZATION_ASSIGNMENT(#726,#731,(#702));
#733=PERSON_AND_ORGANIZATION_ROLE('classification_officer');
#734=CC_DESIGN_PERSON_AND_ORGANIZATION_ASSIGNMENT(#726,#733,(#710));
#735=PERSON_AND_ORGANIZATION_ROLE('design_owner');
#736=CC_DESIGN_PERSON_AND_ORGANIZATION_ASSIGNMENT(#726,#735,(#701));
#42=CIRCLE('',#41,1.5E0);
#75=CIRCLE('',#74,1.5E0);
#132=CIRCLE('',#131,1.5E0);
#165=CIRCLE('',#164,1.5E0);
#331=EDGE_CURVE('',#296,#297,#21,.T.);
#333=EDGE_CURVE('',#296,#313,#25,.T.);
#335=EDGE_CURVE('',#312,#313,#29,.T.);
#337=EDGE_CURVE('',#312,#275,#33,.T.);
#339=EDGE_CURVE('',#273,#275,#37,.T.);
#341=EDGE_CURVE('',#272,#273,#42,.T.);
#343=EDGE_CURVE('',#277,#272,#46,.T.);
#345=EDGE_CURVE('',#277,#321,#50,.T.);
#347=EDGE_CURVE('',#320,#321,#54,.T.);
#349=EDGE_CURVE('',#320,#305,#58,.T.);
#351=EDGE_CURVE('',#304,#305,#62,.T.);
#353=EDGE_CURVE('',#304,#265,#66,.T.);
#355=EDGE_CURVE('',#264,#265,#70,.T.);
#357=EDGE_CURVE('',#269,#264,#75,.T.);
#359=EDGE_CURVE('',#268,#269,#79,.T.);
#361=EDGE_CURVE('',#268,#297,#83,.T.);
#365=EDGE_CURVE('',#248,#249,#5,.T.);
#367=EDGE_CURVE('',#253,#248,#9,.T.);
#369=EDGE_CURVE('',#251,#253,#13,.T.);
#371=EDGE_CURVE('',#249,#251,#17,.T.);
#382=EDGE_CURVE('',#257,#249,#91,.T.);
#384=EDGE_CURVE('',#256,#257,#103,.T.);
#386=EDGE_CURVE('',#256,#248,#87,.T.);
#397=EDGE_CURVE('',#259,#251,#95,.T.);
#399=EDGE_CURVE('',#257,#259,#107,.T.);
#411=EDGE_CURVE('',#261,#253,#99,.T.);
#413=EDGE_CURVE('',#259,#261,#111,.T.);
#426=EDGE_CURVE('',#261,#256,#115,.T.);
#437=EDGE_CURVE('',#299,#301,#119,.T.);
#439=EDGE_CURVE('',#284,#299,#123,.T.);
#441=EDGE_CURVE('',#284,#285,#127,.T.);
#443=EDGE_CURVE('',#285,#280,#132,.T.);
#445=EDGE_CURVE('',#280,#281,#136,.T.);
#447=EDGE_CURVE('',#309,#281,#140,.T.);
#449=EDGE_CURVE('',#307,#309,#144,.T.);
#451=EDGE_CURVE('',#325,#307,#148,.T.);
#453=EDGE_CURVE('',#323,#325,#152,.T.);
#455=EDGE_CURVE('',#293,#323,#156,.T.);
#457=EDGE_CURVE('',#293,#288,#160,.T.);
#459=EDGE_CURVE('',#288,#289,#165,.T.);
#461=EDGE_CURVE('',#289,#291,#169,.T.);
#463=EDGE_CURVE('',#317,#291,#173,.T.);
#465=EDGE_CURVE('',#315,#317,#177,.T.);
#467=EDGE_CURVE('',#301,#315,#181,.T.);
#484=EDGE_CURVE('',#299,#297,#185,.T.);
#487=EDGE_CURVE('',#301,#296,#233,.T.);
#499=EDGE_CURVE('',#268,#284,#189,.T.);
#510=EDGE_CURVE('',#309,#304,#193,.T.);
#513=EDGE_CURVE('',#265,#281,#197,.T.);
#525=EDGE_CURVE('',#285,#269,#201,.T.);
#538=EDGE_CURVE('',#280,#264,#205,.T.);
#563=EDGE_CURVE('',#307,#305,#209,.T.);
#577=EDGE_CURVE('',#325,#320,#213,.T.);
#589=EDGE_CURVE('',#323,#321,#225,.T.);
#601=EDGE_CURVE('',#317,#312,#217,.T.);
#604=EDGE_CURVE('',#275,#291,#221,.T.);
#617=EDGE_CURVE('',#277,#293,#229,.T.);
#629=EDGE_CURVE('',#315,#313,#237,.T.);
#656=EDGE_CURVE('',#289,#273,#241,.T.);
#669=EDGE_CURVE('',#288,#272,#245,.T.);
#688=(LENGTH_UNIT()NAMED_UNIT(*)SI_UNIT(.MILLI.,.METRE.));
#690=(NAMED_UNIT(*)PLANE_ANGLE_UNIT()SI_UNIT($,.RADIAN.));
#693=(NAMED_UNIT(*)SI_UNIT($,.STERADIAN.)SOLID_ANGLE_UNIT());
#696=ADVANCED_BREP_SHAPE_REPRESENTATION('',(#687),#695);
#703=PRODUCT_DEFINITION('design','',#702,#699);
#704=PRODUCT_DEFINITION_SHAPE('','SHAPE FOR 3350_0202_501.',#703);
#705=SHAPE_DEFINITION_REPRESENTATION(#704,#696);
ENDSEC;
END-ISO-10303-21;
