ISO-10303-21;
HEADER;
FILE_DESCRIPTION((''),'2;1');
FILE_NAME('30202154021','2020-03-10T',('presta_be4'),(''),
'CREO PARAMETRIC BY PTC INC, 2018360','CREO PARAMETRIC BY PTC INC, 2018360','');
FILE_SCHEMA(('CONFIG_CONTROL_DESIGN'));
ENDSEC;
DATA;
#1=CARTESIAN_POINT('',(1.286670909818E1,3.4E-1,0.E0));
#2=DIRECTION('',(0.E0,0.E0,1.E0));
#3=DIRECTION('',(9.626951786108E-1,2.705882352941E-1,0.E0));
#4=AXIS2_PLACEMENT_3D('',#1,#2,#3);
#6=CARTESIAN_POINT('',(1.286670909818E1,-3.4E-1,0.E0));
#7=DIRECTION('',(0.E0,0.E0,-1.E0));
#8=DIRECTION('',(9.626951786108E-1,-2.705882352941E-1,0.E0));
#9=AXIS2_PLACEMENT_3D('',#6,#7,#8);
#11=CARTESIAN_POINT('',(1.3685E1,0.E0,0.E0));
#12=DIRECTION('',(-1.E0,0.E0,0.E0));
#13=DIRECTION('',(0.E0,1.E0,0.E0));
#14=AXIS2_PLACEMENT_3D('',#11,#12,#13);
#16=CARTESIAN_POINT('',(1.3685E1,0.E0,0.E0));
#17=DIRECTION('',(1.E0,0.E0,0.E0));
#18=DIRECTION('',(0.E0,1.E0,0.E0));
#19=AXIS2_PLACEMENT_3D('',#16,#17,#18);
#21=CARTESIAN_POINT('',(1.286670909818E1,0.E0,0.E0));
#22=DIRECTION('',(1.E0,0.E0,0.E0));
#23=DIRECTION('',(0.E0,1.E0,0.E0));
#24=AXIS2_PLACEMENT_3D('',#21,#22,#23);
#26=DIRECTION('',(-1.E0,0.E0,0.E0));
#27=VECTOR('',#26,1.233170909818E1);
#28=CARTESIAN_POINT('',(1.286670909818E1,1.19E0,0.E0));
#29=LINE('',#28,#27);
#30=DIRECTION('',(-1.E0,0.E0,0.E0));
#31=VECTOR('',#30,1.233170909818E1);
#32=CARTESIAN_POINT('',(1.286670909818E1,-1.19E0,0.E0));
#33=LINE('',#32,#31);
#34=CARTESIAN_POINT('',(1.286670909818E1,0.E0,0.E0));
#35=DIRECTION('',(-1.E0,0.E0,0.E0));
#36=DIRECTION('',(0.E0,1.E0,0.E0));
#37=AXIS2_PLACEMENT_3D('',#34,#35,#36);
#39=CARTESIAN_POINT('',(5.35E-1,0.E0,0.E0));
#40=DIRECTION('',(1.E0,0.E0,0.E0));
#41=DIRECTION('',(0.E0,1.E0,0.E0));
#42=AXIS2_PLACEMENT_3D('',#39,#40,#41);
#44=CARTESIAN_POINT('',(5.35E-1,0.E0,0.E0));
#45=DIRECTION('',(-1.E0,0.E0,0.E0));
#46=DIRECTION('',(0.E0,1.E0,0.E0));
#47=AXIS2_PLACEMENT_3D('',#44,#45,#46);
#49=DIRECTION('',(-1.E0,0.E0,0.E0));
#50=VECTOR('',#49,3.E-1);
#51=CARTESIAN_POINT('',(5.35E-1,9.55E-1,0.E0));
#52=LINE('',#51,#50);
#53=DIRECTION('',(-1.E0,0.E0,0.E0));
#54=VECTOR('',#53,3.E-1);
#55=CARTESIAN_POINT('',(5.35E-1,-9.55E-1,0.E0));
#56=LINE('',#55,#54);
#57=CARTESIAN_POINT('',(5.35E-1,0.E0,0.E0));
#58=DIRECTION('',(-1.E0,0.E0,0.E0));
#59=DIRECTION('',(0.E0,1.E0,0.E0));
#60=AXIS2_PLACEMENT_3D('',#57,#58,#59);
#62=CARTESIAN_POINT('',(5.35E-1,0.E0,0.E0));
#63=DIRECTION('',(1.E0,0.E0,0.E0));
#64=DIRECTION('',(0.E0,1.E0,0.E0));
#65=AXIS2_PLACEMENT_3D('',#62,#63,#64);
#67=CARTESIAN_POINT('',(2.35E-1,0.E0,0.E0));
#68=DIRECTION('',(1.E0,0.E0,0.E0));
#69=DIRECTION('',(0.E0,1.E0,0.E0));
#70=AXIS2_PLACEMENT_3D('',#67,#68,#69);
#72=DIRECTION('',(-7.071067811865E-1,7.071067811865E-1,0.E0));
#73=VECTOR('',#72,3.323401871577E-1);
#74=CARTESIAN_POINT('',(2.35E-1,9.55E-1,0.E0));
#75=LINE('',#74,#73);
#76=DIRECTION('',(-7.071067811865E-1,-7.071067811865E-1,0.E0));
#77=VECTOR('',#76,3.323401871577E-1);
#78=CARTESIAN_POINT('',(2.35E-1,-9.55E-1,0.E0));
#79=LINE('',#78,#77);
#80=CARTESIAN_POINT('',(2.35E-1,0.E0,0.E0));
#81=DIRECTION('',(-1.E0,0.E0,0.E0));
#82=DIRECTION('',(0.E0,1.E0,0.E0));
#83=AXIS2_PLACEMENT_3D('',#80,#81,#82);
#85=DIRECTION('',(-1.E0,0.E0,0.E0));
#86=VECTOR('',#85,7.616628314259E0);
#87=CARTESIAN_POINT('',(0.E0,1.19E0,0.E0));
#88=LINE('',#87,#86);
#89=DIRECTION('',(-1.E0,0.E0,0.E0));
#90=VECTOR('',#89,7.616628314259E0);
#91=CARTESIAN_POINT('',(0.E0,-1.19E0,0.E0));
#92=LINE('',#91,#90);
#93=CARTESIAN_POINT('',(0.E0,0.E0,0.E0));
#94=DIRECTION('',(-1.E0,0.E0,0.E0));
#95=DIRECTION('',(0.E0,1.E0,0.E0));
#96=AXIS2_PLACEMENT_3D('',#93,#94,#95);
#98=CARTESIAN_POINT('',(0.E0,0.E0,0.E0));
#99=DIRECTION('',(1.E0,0.E0,0.E0));
#100=DIRECTION('',(0.E0,1.E0,0.E0));
#101=AXIS2_PLACEMENT_3D('',#98,#99,#100);
#103=CARTESIAN_POINT('',(-7.616628314259E0,0.E0,0.E0));
#104=DIRECTION('',(1.E0,0.E0,0.E0));
#105=DIRECTION('',(0.E0,1.E0,0.E0));
#106=AXIS2_PLACEMENT_3D('',#103,#104,#105);
#108=DIRECTION('',(-8.660254037844E-1,-5.E-1,0.E0));
#109=VECTOR('',#108,4.6E-1);
#110=CARTESIAN_POINT('',(-7.616628314259E0,1.19E0,0.E0));
#111=LINE('',#110,#109);
#112=DIRECTION('',(-8.660254037844E-1,5.E-1,0.E0));
#113=VECTOR('',#112,4.6E-1);
#114=CARTESIAN_POINT('',(-7.616628314259E0,-1.19E0,0.E0));
#115=LINE('',#114,#113);
#116=CARTESIAN_POINT('',(-7.616628314259E0,0.E0,0.E0));
#117=DIRECTION('',(-1.E0,0.E0,0.E0));
#118=DIRECTION('',(0.E0,1.E0,0.E0));
#119=AXIS2_PLACEMENT_3D('',#116,#117,#118);
#121=DIRECTION('',(-1.E0,0.E0,0.E0));
#122=VECTOR('',#121,7.603256628518E0);
#123=CARTESIAN_POINT('',(-8.015E0,9.6E-1,0.E0));
#124=LINE('',#123,#122);
#125=DIRECTION('',(-1.E0,0.E0,0.E0));
#126=VECTOR('',#125,7.603256628518E0);
#127=CARTESIAN_POINT('',(-8.015E0,-9.6E-1,0.E0));
#128=LINE('',#127,#126);
#129=CARTESIAN_POINT('',(-8.015E0,0.E0,0.E0));
#130=DIRECTION('',(-1.E0,0.E0,0.E0));
#131=DIRECTION('',(0.E0,1.E0,0.E0));
#132=AXIS2_PLACEMENT_3D('',#129,#130,#131);
#134=CARTESIAN_POINT('',(-8.015E0,0.E0,0.E0));
#135=DIRECTION('',(1.E0,0.E0,0.E0));
#136=DIRECTION('',(0.E0,1.E0,0.E0));
#137=AXIS2_PLACEMENT_3D('',#134,#135,#136);
#139=CARTESIAN_POINT('',(-1.561825662852E1,0.E0,0.E0));
#140=DIRECTION('',(1.E0,0.E0,0.E0));
#141=DIRECTION('',(0.E0,1.E0,0.E0));
#142=AXIS2_PLACEMENT_3D('',#139,#140,#141);
#144=DIRECTION('',(-8.660254037844E-1,-5.E-1,0.E0));
#145=VECTOR('',#144,9.2E-1);
#146=CARTESIAN_POINT('',(-1.561825662852E1,9.6E-1,0.E0));
#147=LINE('',#146,#145);
#148=DIRECTION('',(-8.660254037844E-1,5.E-1,0.E0));
#149=VECTOR('',#148,9.2E-1);
#150=CARTESIAN_POINT('',(-1.561825662852E1,-9.6E-1,0.E0));
#151=LINE('',#150,#149);
#152=CARTESIAN_POINT('',(-1.561825662852E1,0.E0,0.E0));
#153=DIRECTION('',(-1.E0,0.E0,0.E0));
#154=DIRECTION('',(0.E0,1.E0,0.E0));
#155=AXIS2_PLACEMENT_3D('',#152,#153,#154);
#157=CARTESIAN_POINT('',(-1.6415E1,0.E0,0.E0));
#158=DIRECTION('',(-1.E0,0.E0,0.E0));
#159=DIRECTION('',(0.E0,1.E0,0.E0));
#160=AXIS2_PLACEMENT_3D('',#157,#158,#159);
#162=CARTESIAN_POINT('',(-1.6415E1,0.E0,0.E0));
#163=DIRECTION('',(1.E0,0.E0,0.E0));
#164=DIRECTION('',(0.E0,1.E0,0.E0));
#165=AXIS2_PLACEMENT_3D('',#162,#163,#164);
#167=CARTESIAN_POINT('',(1.286670909818E1,1.19E0,0.E0));
#168=CARTESIAN_POINT('',(5.35E-1,1.19E0,0.E0));
#169=VERTEX_POINT('',#167);
#170=VERTEX_POINT('',#168);
#171=CARTESIAN_POINT('',(5.35E-1,9.55E-1,0.E0));
#172=CARTESIAN_POINT('',(2.35E-1,9.55E-1,0.E0));
#173=VERTEX_POINT('',#171);
#174=VERTEX_POINT('',#172);
#175=CARTESIAN_POINT('',(0.E0,1.19E0,0.E0));
#176=VERTEX_POINT('',#175);
#177=CARTESIAN_POINT('',(-7.616628314259E0,1.19E0,0.E0));
#178=VERTEX_POINT('',#177);
#179=CARTESIAN_POINT('',(-8.015E0,9.6E-1,0.E0));
#180=VERTEX_POINT('',#179);
#181=CARTESIAN_POINT('',(-1.561825662852E1,9.6E-1,0.E0));
#182=VERTEX_POINT('',#181);
#183=CARTESIAN_POINT('',(-1.6415E1,5.E-1,0.E0));
#184=VERTEX_POINT('',#183);
#185=CARTESIAN_POINT('',(1.286670909818E1,-1.19E0,0.E0));
#186=CARTESIAN_POINT('',(5.35E-1,-1.19E0,0.E0));
#187=VERTEX_POINT('',#185);
#188=VERTEX_POINT('',#186);
#189=CARTESIAN_POINT('',(5.35E-1,-9.55E-1,0.E0));
#190=CARTESIAN_POINT('',(2.35E-1,-9.55E-1,0.E0));
#191=VERTEX_POINT('',#189);
#192=VERTEX_POINT('',#190);
#193=CARTESIAN_POINT('',(0.E0,-1.19E0,0.E0));
#194=VERTEX_POINT('',#193);
#195=CARTESIAN_POINT('',(-7.616628314259E0,-1.19E0,0.E0));
#196=VERTEX_POINT('',#195);
#197=CARTESIAN_POINT('',(-8.015E0,-9.6E-1,0.E0));
#198=VERTEX_POINT('',#197);
#199=CARTESIAN_POINT('',(-1.561825662852E1,-9.6E-1,0.E0));
#200=VERTEX_POINT('',#199);
#201=CARTESIAN_POINT('',(-1.6415E1,-5.E-1,0.E0));
#202=VERTEX_POINT('',#201);
#203=CARTESIAN_POINT('',(1.3685E1,5.7E-1,0.E0));
#204=VERTEX_POINT('',#203);
#205=CARTESIAN_POINT('',(1.3685E1,-5.7E-1,0.E0));
#206=VERTEX_POINT('',#205);
#207=CARTESIAN_POINT('',(1.3685E1,0.E0,0.E0));
#208=DIRECTION('',(1.E0,0.E0,0.E0));
#209=DIRECTION('',(0.E0,-1.E0,0.E0));
#210=AXIS2_PLACEMENT_3D('',#207,#208,#209);
#211=PLANE('',#210);
#213=ORIENTED_EDGE('',*,*,#212,.T.);
#215=ORIENTED_EDGE('',*,*,#214,.F.);
#216=EDGE_LOOP('',(#213,#215));
#217=FACE_OUTER_BOUND('',#216,.F.);
#218=ADVANCED_FACE('',(#217),#211,.T.);
#219=CARTESIAN_POINT('',(1.286670909818E1,-1.19E0,0.E0));
#220=CARTESIAN_POINT('',(1.326246960573E1,-1.19E0,0.E0));
#221=CARTESIAN_POINT('',(1.357791186266E1,-9.509967325013E-1,0.E0));
#222=CARTESIAN_POINT('',(1.3685E1,-5.7E-1,0.E0));
#223=CARTESIAN_POINT('',(1.286670909818E1,-1.19E0,-2.38E0));
#224=CARTESIAN_POINT('',(1.326246960573E1,-1.19E0,-2.38E0));
#225=CARTESIAN_POINT('',(1.357791186266E1,-9.509967325013E-1,
-1.901993465003E0));
#226=CARTESIAN_POINT('',(1.3685E1,-5.7E-1,-1.14E0));
#227=CARTESIAN_POINT('',(1.286670909818E1,1.19E0,-2.38E0));
#228=CARTESIAN_POINT('',(1.326246960573E1,1.19E0,-2.38E0));
#229=CARTESIAN_POINT('',(1.357791186266E1,9.509967325013E-1,-1.901993465003E0));
#230=CARTESIAN_POINT('',(1.3685E1,5.7E-1,-1.14E0));
#231=CARTESIAN_POINT('',(1.286670909818E1,1.19E0,0.E0));
#232=CARTESIAN_POINT('',(1.326246960573E1,1.19E0,0.E0));
#233=CARTESIAN_POINT('',(1.357791186266E1,9.509967325013E-1,0.E0));
#234=CARTESIAN_POINT('',(1.3685E1,5.7E-1,0.E0));
#235=(BOUNDED_SURFACE()B_SPLINE_SURFACE(3,3,((#219,#220,#221,#222),(#223,#224,
#225,#226),(#227,#228,#229,#230),(#231,#232,#233,#234)),.UNSPECIFIED.,.F.,.F.,
.F.)B_SPLINE_SURFACE_WITH_KNOTS((4,4),(4,4),(0.E0,1.E0),(0.E0,1.E0),
.UNSPECIFIED.)GEOMETRIC_REPRESENTATION_ITEM()RATIONAL_B_SPLINE_SURFACE(((
2.225865968540E0,1.924711343820E0,1.924711343820E0,2.225865968540E0),(
7.419553228466E-1,6.415704479400E-1,6.415704479400E-1,7.419553228466E-1),(
7.419553228466E-1,6.415704479400E-1,6.415704479400E-1,7.419553228466E-1),(
2.225865968540E0,1.924711343820E0,1.924711343820E0,2.225865968540E0)))REPRESENTATION_ITEM('')SURFACE());
#237=ORIENTED_EDGE('',*,*,#236,.T.);
#239=ORIENTED_EDGE('',*,*,#238,.T.);
#241=ORIENTED_EDGE('',*,*,#240,.F.);
#242=ORIENTED_EDGE('',*,*,#212,.F.);
#243=EDGE_LOOP('',(#237,#239,#241,#242));
#244=FACE_OUTER_BOUND('',#243,.F.);
#245=ADVANCED_FACE('',(#244),#235,.T.);
#246=CARTESIAN_POINT('',(1.286670909818E1,1.19E0,0.E0));
#247=CARTESIAN_POINT('',(1.326246960573E1,1.19E0,0.E0));
#248=CARTESIAN_POINT('',(1.357791186266E1,9.509967325013E-1,0.E0));
#249=CARTESIAN_POINT('',(1.3685E1,5.7E-1,0.E0));
#250=CARTESIAN_POINT('',(1.286670909818E1,1.19E0,2.38E0));
#251=CARTESIAN_POINT('',(1.326246960573E1,1.19E0,2.38E0));
#252=CARTESIAN_POINT('',(1.357791186266E1,9.509967325013E-1,1.901993465003E0));
#253=CARTESIAN_POINT('',(1.3685E1,5.7E-1,1.14E0));
#254=CARTESIAN_POINT('',(1.286670909818E1,-1.19E0,2.38E0));
#255=CARTESIAN_POINT('',(1.326246960573E1,-1.19E0,2.38E0));
#256=CARTESIAN_POINT('',(1.357791186266E1,-9.509967325013E-1,1.901993465003E0));
#257=CARTESIAN_POINT('',(1.3685E1,-5.7E-1,1.14E0));
#258=CARTESIAN_POINT('',(1.286670909818E1,-1.19E0,0.E0));
#259=CARTESIAN_POINT('',(1.326246960573E1,-1.19E0,0.E0));
#260=CARTESIAN_POINT('',(1.357791186266E1,-9.509967325013E-1,0.E0));
#261=CARTESIAN_POINT('',(1.3685E1,-5.7E-1,0.E0));
#262=(BOUNDED_SURFACE()B_SPLINE_SURFACE(3,3,((#246,#247,#248,#249),(#250,#251,
#252,#253),(#254,#255,#256,#257),(#258,#259,#260,#261)),.UNSPECIFIED.,.F.,.F.,
.F.)B_SPLINE_SURFACE_WITH_KNOTS((4,4),(4,4),(0.E0,1.E0),(0.E0,1.E0),
.UNSPECIFIED.)GEOMETRIC_REPRESENTATION_ITEM()RATIONAL_B_SPLINE_SURFACE(((
2.225865968540E0,1.924711343820E0,1.924711343820E0,2.225865968540E0),(
7.419553228466E-1,6.415704479400E-1,6.415704479400E-1,7.419553228466E-1),(
7.419553228466E-1,6.415704479400E-1,6.415704479400E-1,7.419553228466E-1),(
2.225865968540E0,1.924711343820E0,1.924711343820E0,2.225865968540E0)))REPRESENTATION_ITEM('')SURFACE());
#263=ORIENTED_EDGE('',*,*,#236,.F.);
#264=ORIENTED_EDGE('',*,*,#214,.T.);
#265=ORIENTED_EDGE('',*,*,#240,.T.);
#267=ORIENTED_EDGE('',*,*,#266,.F.);
#268=EDGE_LOOP('',(#263,#264,#265,#267));
#269=FACE_OUTER_BOUND('',#268,.F.);
#270=ADVANCED_FACE('',(#269),#262,.T.);
#271=CARTESIAN_POINT('',(-1.792E1,0.E0,0.E0));
#272=DIRECTION('',(1.E0,0.E0,0.E0));
#273=DIRECTION('',(0.E0,-1.E0,0.E0));
#274=AXIS2_PLACEMENT_3D('',#271,#272,#273);
#275=CYLINDRICAL_SURFACE('',#274,1.19E0);
#277=ORIENTED_EDGE('',*,*,#276,.F.);
#278=ORIENTED_EDGE('',*,*,#266,.T.);
#280=ORIENTED_EDGE('',*,*,#279,.T.);
#282=ORIENTED_EDGE('',*,*,#281,.F.);
#283=EDGE_LOOP('',(#277,#278,#280,#282));
#284=FACE_OUTER_BOUND('',#283,.F.);
#285=ADVANCED_FACE('',(#284),#275,.T.);
#286=CARTESIAN_POINT('',(-1.792E1,0.E0,0.E0));
#287=DIRECTION('',(1.E0,0.E0,0.E0));
#288=DIRECTION('',(0.E0,-1.E0,0.E0));
#289=AXIS2_PLACEMENT_3D('',#286,#287,#288);
#290=CYLINDRICAL_SURFACE('',#289,1.19E0);
#291=ORIENTED_EDGE('',*,*,#276,.T.);
#293=ORIENTED_EDGE('',*,*,#292,.T.);
#294=ORIENTED_EDGE('',*,*,#279,.F.);
#295=ORIENTED_EDGE('',*,*,#238,.F.);
#296=EDGE_LOOP('',(#291,#293,#294,#295));
#297=FACE_OUTER_BOUND('',#296,.F.);
#298=ADVANCED_FACE('',(#297),#290,.T.);
#299=CARTESIAN_POINT('',(5.35E-1,0.E0,0.E0));
#300=DIRECTION('',(1.E0,0.E0,0.E0));
#301=DIRECTION('',(0.E0,-1.E0,0.E0));
#302=AXIS2_PLACEMENT_3D('',#299,#300,#301);
#303=PLANE('',#302);
#304=ORIENTED_EDGE('',*,*,#281,.T.);
#305=ORIENTED_EDGE('',*,*,#292,.F.);
#306=EDGE_LOOP('',(#304,#305));
#307=FACE_OUTER_BOUND('',#306,.F.);
#309=ORIENTED_EDGE('',*,*,#308,.T.);
#311=ORIENTED_EDGE('',*,*,#310,.F.);
#312=EDGE_LOOP('',(#309,#311));
#313=FACE_BOUND('',#312,.F.);
#314=ADVANCED_FACE('',(#307,#313),#303,.F.);
#315=CARTESIAN_POINT('',(-1.792E1,0.E0,0.E0));
#316=DIRECTION('',(1.E0,0.E0,0.E0));
#317=DIRECTION('',(0.E0,-1.E0,0.E0));
#318=AXIS2_PLACEMENT_3D('',#315,#316,#317);
#319=CYLINDRICAL_SURFACE('',#318,9.55E-1);
#321=ORIENTED_EDGE('',*,*,#320,.T.);
#323=ORIENTED_EDGE('',*,*,#322,.T.);
#325=ORIENTED_EDGE('',*,*,#324,.F.);
#326=ORIENTED_EDGE('',*,*,#308,.F.);
#327=EDGE_LOOP('',(#321,#323,#325,#326));
#328=FACE_OUTER_BOUND('',#327,.F.);
#329=ADVANCED_FACE('',(#328),#319,.T.);
#330=CARTESIAN_POINT('',(-1.792E1,0.E0,0.E0));
#331=DIRECTION('',(1.E0,0.E0,0.E0));
#332=DIRECTION('',(0.E0,-1.E0,0.E0));
#333=AXIS2_PLACEMENT_3D('',#330,#331,#332);
#334=CYLINDRICAL_SURFACE('',#333,9.55E-1);
#335=ORIENTED_EDGE('',*,*,#320,.F.);
#336=ORIENTED_EDGE('',*,*,#310,.T.);
#337=ORIENTED_EDGE('',*,*,#324,.T.);
#339=ORIENTED_EDGE('',*,*,#338,.F.);
#340=EDGE_LOOP('',(#335,#336,#337,#339));
#341=FACE_OUTER_BOUND('',#340,.F.);
#342=ADVANCED_FACE('',(#341),#334,.T.);
#343=CARTESIAN_POINT('',(1.175E-1,0.E0,0.E0));
#344=DIRECTION('',(-1.E0,0.E0,0.E0));
#345=DIRECTION('',(0.E0,1.E0,0.E0));
#346=AXIS2_PLACEMENT_3D('',#343,#344,#345);
#347=CONICAL_SURFACE('',#346,1.0725E0,4.5E1);
#349=ORIENTED_EDGE('',*,*,#348,.F.);
#350=ORIENTED_EDGE('',*,*,#338,.T.);
#352=ORIENTED_EDGE('',*,*,#351,.T.);
#354=ORIENTED_EDGE('',*,*,#353,.F.);
#355=EDGE_LOOP('',(#349,#350,#352,#354));
#356=FACE_OUTER_BOUND('',#355,.F.);
#357=ADVANCED_FACE('',(#356),#347,.T.);
#358=CARTESIAN_POINT('',(1.175E-1,0.E0,0.E0));
#359=DIRECTION('',(-1.E0,0.E0,0.E0));
#360=DIRECTION('',(0.E0,1.E0,0.E0));
#361=AXIS2_PLACEMENT_3D('',#358,#359,#360);
#362=CONICAL_SURFACE('',#361,1.0725E0,4.5E1);
#363=ORIENTED_EDGE('',*,*,#348,.T.);
#365=ORIENTED_EDGE('',*,*,#364,.T.);
#366=ORIENTED_EDGE('',*,*,#351,.F.);
#367=ORIENTED_EDGE('',*,*,#322,.F.);
#368=EDGE_LOOP('',(#363,#365,#366,#367));
#369=FACE_OUTER_BOUND('',#368,.F.);
#370=ADVANCED_FACE('',(#369),#362,.T.);
#371=CARTESIAN_POINT('',(-1.792E1,0.E0,0.E0));
#372=DIRECTION('',(1.E0,0.E0,0.E0));
#373=DIRECTION('',(0.E0,-1.E0,0.E0));
#374=AXIS2_PLACEMENT_3D('',#371,#372,#373);
#375=CYLINDRICAL_SURFACE('',#374,1.19E0);
#377=ORIENTED_EDGE('',*,*,#376,.T.);
#379=ORIENTED_EDGE('',*,*,#378,.T.);
#381=ORIENTED_EDGE('',*,*,#380,.F.);
#382=ORIENTED_EDGE('',*,*,#364,.F.);
#383=EDGE_LOOP('',(#377,#379,#381,#382));
#384=FACE_OUTER_BOUND('',#383,.F.);
#385=ADVANCED_FACE('',(#384),#375,.T.);
#386=CARTESIAN_POINT('',(-1.792E1,0.E0,0.E0));
#387=DIRECTION('',(1.E0,0.E0,0.E0));
#388=DIRECTION('',(0.E0,-1.E0,0.E0));
#389=AXIS2_PLACEMENT_3D('',#386,#387,#388);
#390=CYLINDRICAL_SURFACE('',#389,1.19E0);
#391=ORIENTED_EDGE('',*,*,#376,.F.);
#392=ORIENTED_EDGE('',*,*,#353,.T.);
#393=ORIENTED_EDGE('',*,*,#380,.T.);
#395=ORIENTED_EDGE('',*,*,#394,.F.);
#396=EDGE_LOOP('',(#391,#392,#393,#395));
#397=FACE_OUTER_BOUND('',#396,.F.);
#398=ADVANCED_FACE('',(#397),#390,.T.);
#399=CARTESIAN_POINT('',(-7.815814157130E0,0.E0,0.E0));
#400=DIRECTION('',(1.E0,0.E0,0.E0));
#401=DIRECTION('',(0.E0,-1.E0,0.E0));
#402=AXIS2_PLACEMENT_3D('',#399,#400,#401);
#403=CONICAL_SURFACE('',#402,1.075E0,3.E1);
#405=ORIENTED_EDGE('',*,*,#404,.F.);
#406=ORIENTED_EDGE('',*,*,#394,.T.);
#408=ORIENTED_EDGE('',*,*,#407,.T.);
#410=ORIENTED_EDGE('',*,*,#409,.F.);
#411=EDGE_LOOP('',(#405,#406,#408,#410));
#412=FACE_OUTER_BOUND('',#411,.F.);
#413=ADVANCED_FACE('',(#412),#403,.T.);
#414=CARTESIAN_POINT('',(-7.815814157130E0,0.E0,0.E0));
#415=DIRECTION('',(1.E0,0.E0,0.E0));
#416=DIRECTION('',(0.E0,-1.E0,0.E0));
#417=AXIS2_PLACEMENT_3D('',#414,#415,#416);
#418=CONICAL_SURFACE('',#417,1.075E0,3.E1);
#419=ORIENTED_EDGE('',*,*,#404,.T.);
#421=ORIENTED_EDGE('',*,*,#420,.T.);
#422=ORIENTED_EDGE('',*,*,#407,.F.);
#423=ORIENTED_EDGE('',*,*,#378,.F.);
#424=EDGE_LOOP('',(#419,#421,#422,#423));
#425=FACE_OUTER_BOUND('',#424,.F.);
#426=ADVANCED_FACE('',(#425),#418,.T.);
#427=CARTESIAN_POINT('',(-1.792E1,0.E0,0.E0));
#428=DIRECTION('',(1.E0,0.E0,0.E0));
#429=DIRECTION('',(0.E0,-1.E0,0.E0));
#430=AXIS2_PLACEMENT_3D('',#427,#428,#429);
#431=CYLINDRICAL_SURFACE('',#430,9.6E-1);
#433=ORIENTED_EDGE('',*,*,#432,.T.);
#435=ORIENTED_EDGE('',*,*,#434,.T.);
#437=ORIENTED_EDGE('',*,*,#436,.F.);
#438=ORIENTED_EDGE('',*,*,#420,.F.);
#439=EDGE_LOOP('',(#433,#435,#437,#438));
#440=FACE_OUTER_BOUND('',#439,.F.);
#441=ADVANCED_FACE('',(#440),#431,.T.);
#442=CARTESIAN_POINT('',(-1.792E1,0.E0,0.E0));
#443=DIRECTION('',(1.E0,0.E0,0.E0));
#444=DIRECTION('',(0.E0,-1.E0,0.E0));
#445=AXIS2_PLACEMENT_3D('',#442,#443,#444);
#446=CYLINDRICAL_SURFACE('',#445,9.6E-1);
#447=ORIENTED_EDGE('',*,*,#432,.F.);
#448=ORIENTED_EDGE('',*,*,#409,.T.);
#449=ORIENTED_EDGE('',*,*,#436,.T.);
#451=ORIENTED_EDGE('',*,*,#450,.F.);
#452=EDGE_LOOP('',(#447,#448,#449,#451));
#453=FACE_OUTER_BOUND('',#452,.F.);
#454=ADVANCED_FACE('',(#453),#446,.T.);
#455=CARTESIAN_POINT('',(-1.601662831426E1,0.E0,0.E0));
#456=DIRECTION('',(1.E0,0.E0,0.E0));
#457=DIRECTION('',(0.E0,-1.E0,0.E0));
#458=AXIS2_PLACEMENT_3D('',#455,#456,#457);
#459=CONICAL_SURFACE('',#458,7.3E-1,3.E1);
#461=ORIENTED_EDGE('',*,*,#460,.F.);
#462=ORIENTED_EDGE('',*,*,#450,.T.);
#464=ORIENTED_EDGE('',*,*,#463,.T.);
#466=ORIENTED_EDGE('',*,*,#465,.F.);
#467=EDGE_LOOP('',(#461,#462,#464,#466));
#468=FACE_OUTER_BOUND('',#467,.F.);
#469=ADVANCED_FACE('',(#468),#459,.T.);
#470=CARTESIAN_POINT('',(-1.601662831426E1,0.E0,0.E0));
#471=DIRECTION('',(1.E0,0.E0,0.E0));
#472=DIRECTION('',(0.E0,-1.E0,0.E0));
#473=AXIS2_PLACEMENT_3D('',#470,#471,#472);
#474=CONICAL_SURFACE('',#473,7.3E-1,3.E1);
#475=ORIENTED_EDGE('',*,*,#460,.T.);
#477=ORIENTED_EDGE('',*,*,#476,.T.);
#478=ORIENTED_EDGE('',*,*,#463,.F.);
#479=ORIENTED_EDGE('',*,*,#434,.F.);
#480=EDGE_LOOP('',(#475,#477,#478,#479));
#481=FACE_OUTER_BOUND('',#480,.F.);
#482=ADVANCED_FACE('',(#481),#474,.T.);
#483=CARTESIAN_POINT('',(-1.6415E1,0.E0,0.E0));
#484=DIRECTION('',(1.E0,0.E0,0.E0));
#485=DIRECTION('',(0.E0,-1.E0,0.E0));
#486=AXIS2_PLACEMENT_3D('',#483,#484,#485);
#487=PLANE('',#486);
#488=ORIENTED_EDGE('',*,*,#476,.F.);
#489=ORIENTED_EDGE('',*,*,#465,.T.);
#490=EDGE_LOOP('',(#488,#489));
#491=FACE_OUTER_BOUND('',#490,.F.);
#492=ADVANCED_FACE('',(#491),#487,.F.);
#493=CLOSED_SHELL('',(#218,#245,#270,#285,#298,#314,#329,#342,#357,#370,#385,
#398,#413,#426,#441,#454,#469,#482,#492));
#494=MANIFOLD_SOLID_BREP('',#493);
#496=DIMENSIONAL_EXPONENTS(0.E0,0.E0,0.E0,0.E0,0.E0,0.E0,0.E0);
#498=PLANE_ANGLE_MEASURE_WITH_UNIT(PLANE_ANGLE_MEASURE(1.745329251994E-2),#497);
#499=(CONVERSION_BASED_UNIT('DEGREE',#498)NAMED_UNIT(*)PLANE_ANGLE_UNIT());
#501=UNCERTAINTY_MEASURE_WITH_UNIT(LENGTH_MEASURE(1.304332780372E-4),#495,
'closure',
'Maximum model space distance between geometric entities at asserted connectivities');
#502=(GEOMETRIC_REPRESENTATION_CONTEXT(3)GLOBAL_UNCERTAINTY_ASSIGNED_CONTEXT((
#501))GLOBAL_UNIT_ASSIGNED_CONTEXT((#495,#499,#500))REPRESENTATION_CONTEXT
('ID1','3'));
#504=APPLICATION_CONTEXT(
'CONFIGURATION CONTROLLED 3D DESIGNS OF MECHANICAL PARTS AND ASSEMBLIES');
#505=APPLICATION_PROTOCOL_DEFINITION('international standard',
'config_control_design',1994,#504);
#506=DESIGN_CONTEXT('',#504,'design');
#507=MECHANICAL_CONTEXT('',#504,'mechanical');
#508=PRODUCT('30202154021','30202154021','NOT SPECIFIED',(#507));
#509=PRODUCT_DEFINITION_FORMATION_WITH_SPECIFIED_SOURCE('1','LAST_VERSION',#508,
.MADE.);
#513=PRODUCT_CATEGORY('part','');
#514=PRODUCT_RELATED_PRODUCT_CATEGORY('detail','',(#508));
#515=PRODUCT_CATEGORY_RELATIONSHIP('','',#513,#514);
#516=SECURITY_CLASSIFICATION_LEVEL('unclassified');
#517=SECURITY_CLASSIFICATION('','',#516);
#518=CC_DESIGN_SECURITY_CLASSIFICATION(#517,(#509));
#519=APPROVAL_STATUS('approved');
#520=APPROVAL(#519,'');
#521=CC_DESIGN_APPROVAL(#520,(#517,#509,#510));
#522=CALENDAR_DATE(120,10,3);
#523=COORDINATED_UNIVERSAL_TIME_OFFSET(1,0,.AHEAD.);
#524=LOCAL_TIME(17,38,2.3E1,#523);
#525=DATE_AND_TIME(#522,#524);
#526=APPROVAL_DATE_TIME(#525,#520);
#527=DATE_TIME_ROLE('creation_date');
#528=CC_DESIGN_DATE_AND_TIME_ASSIGNMENT(#525,#527,(#510));
#529=DATE_TIME_ROLE('classification_date');
#530=CC_DESIGN_DATE_AND_TIME_ASSIGNMENT(#525,#529,(#517));
#531=PERSON('UNSPECIFIED','UNSPECIFIED',$,$,$,$);
#532=ORGANIZATION('UNSPECIFIED','UNSPECIFIED','UNSPECIFIED');
#533=PERSON_AND_ORGANIZATION(#531,#532);
#534=APPROVAL_ROLE('approver');
#535=APPROVAL_PERSON_ORGANIZATION(#533,#520,#534);
#536=PERSON_AND_ORGANIZATION_ROLE('creator');
#537=CC_DESIGN_PERSON_AND_ORGANIZATION_ASSIGNMENT(#533,#536,(#509,#510));
#538=PERSON_AND_ORGANIZATION_ROLE('design_supplier');
#539=CC_DESIGN_PERSON_AND_ORGANIZATION_ASSIGNMENT(#533,#538,(#509));
#540=PERSON_AND_ORGANIZATION_ROLE('classification_officer');
#541=CC_DESIGN_PERSON_AND_ORGANIZATION_ASSIGNMENT(#533,#540,(#517));
#542=PERSON_AND_ORGANIZATION_ROLE('design_owner');
#543=CC_DESIGN_PERSON_AND_ORGANIZATION_ASSIGNMENT(#533,#542,(#508));
#5=CIRCLE('',#4,8.5E-1);
#10=CIRCLE('',#9,8.5E-1);
#15=CIRCLE('',#14,5.7E-1);
#20=CIRCLE('',#19,5.7E-1);
#25=CIRCLE('',#24,1.19E0);
#38=CIRCLE('',#37,1.19E0);
#43=CIRCLE('',#42,1.19E0);
#48=CIRCLE('',#47,1.19E0);
#61=CIRCLE('',#60,9.55E-1);
#66=CIRCLE('',#65,9.55E-1);
#71=CIRCLE('',#70,9.55E-1);
#84=CIRCLE('',#83,9.55E-1);
#97=CIRCLE('',#96,1.19E0);
#102=CIRCLE('',#101,1.19E0);
#107=CIRCLE('',#106,1.19E0);
#120=CIRCLE('',#119,1.19E0);
#133=CIRCLE('',#132,9.6E-1);
#138=CIRCLE('',#137,9.6E-1);
#143=CIRCLE('',#142,9.6E-1);
#156=CIRCLE('',#155,9.6E-1);
#161=CIRCLE('',#160,5.E-1);
#166=CIRCLE('',#165,5.E-1);
#212=EDGE_CURVE('',#204,#206,#15,.T.);
#214=EDGE_CURVE('',#204,#206,#20,.T.);
#236=EDGE_CURVE('',#204,#169,#5,.T.);
#238=EDGE_CURVE('',#169,#187,#38,.T.);
#240=EDGE_CURVE('',#206,#187,#10,.T.);
#266=EDGE_CURVE('',#169,#187,#25,.T.);
#276=EDGE_CURVE('',#169,#170,#29,.T.);
#279=EDGE_CURVE('',#187,#188,#33,.T.);
#281=EDGE_CURVE('',#170,#188,#43,.T.);
#292=EDGE_CURVE('',#170,#188,#48,.T.);
#308=EDGE_CURVE('',#173,#191,#61,.T.);
#310=EDGE_CURVE('',#173,#191,#66,.T.);
#320=EDGE_CURVE('',#173,#174,#52,.T.);
#322=EDGE_CURVE('',#174,#192,#84,.T.);
#324=EDGE_CURVE('',#191,#192,#56,.T.);
#338=EDGE_CURVE('',#174,#192,#71,.T.);
#348=EDGE_CURVE('',#174,#176,#75,.T.);
#351=EDGE_CURVE('',#192,#194,#79,.T.);
#353=EDGE_CURVE('',#176,#194,#102,.T.);
#364=EDGE_CURVE('',#176,#194,#97,.T.);
#376=EDGE_CURVE('',#176,#178,#88,.T.);
#378=EDGE_CURVE('',#178,#196,#120,.T.);
#380=EDGE_CURVE('',#194,#196,#92,.T.);
#394=EDGE_CURVE('',#178,#196,#107,.T.);
#404=EDGE_CURVE('',#178,#180,#111,.T.);
#407=EDGE_CURVE('',#196,#198,#115,.T.);
#409=EDGE_CURVE('',#180,#198,#138,.T.);
#420=EDGE_CURVE('',#180,#198,#133,.T.);
#432=EDGE_CURVE('',#180,#182,#124,.T.);
#434=EDGE_CURVE('',#182,#200,#156,.T.);
#436=EDGE_CURVE('',#198,#200,#128,.T.);
#450=EDGE_CURVE('',#182,#200,#143,.T.);
#460=EDGE_CURVE('',#182,#184,#147,.T.);
#463=EDGE_CURVE('',#200,#202,#151,.T.);
#465=EDGE_CURVE('',#184,#202,#166,.T.);
#476=EDGE_CURVE('',#184,#202,#161,.T.);
#495=(LENGTH_UNIT()NAMED_UNIT(*)SI_UNIT(.MILLI.,.METRE.));
#497=(NAMED_UNIT(*)PLANE_ANGLE_UNIT()SI_UNIT($,.RADIAN.));
#500=(NAMED_UNIT(*)SI_UNIT($,.STERADIAN.)SOLID_ANGLE_UNIT());
#503=ADVANCED_BREP_SHAPE_REPRESENTATION('',(#494),#502);
#510=PRODUCT_DEFINITION('design','',#509,#506);
#511=PRODUCT_DEFINITION_SHAPE('','SHAPE FOR 30202154021.',#510);
#512=SHAPE_DEFINITION_REPRESENTATION(#511,#503);
ENDSEC;
END-ISO-10303-21;
