ISO-10303-21;
HEADER;
FILE_DESCRIPTION((''),'2;1');
FILE_NAME('00044909104ABM','2020-02-24T',('presta_be4'),(''),
'CREO PARAMETRIC BY PTC INC, 2018360','CREO PARAMETRIC BY PTC INC, 2018360','');
FILE_SCHEMA(('CONFIG_CONTROL_DESIGN'));
ENDSEC;
DATA;
#1=CARTESIAN_POINT('',(0.E0,8.702309401077E0,0.E0));
#2=DIRECTION('',(0.E0,1.E0,0.E0));
#3=DIRECTION('',(-1.E0,0.E0,0.E0));
#4=AXIS2_PLACEMENT_3D('',#1,#2,#3);
#6=DIRECTION('',(-8.660254037844E-1,5.E-1,-2.094622045374E-8));
#7=VECTOR('',#6,6.033811978465E-1);
#8=CARTESIAN_POINT('',(-2.496E0,8.702309401077E0,0.E0));
#9=LINE('',#8,#7);
#10=DIRECTION('',(8.660254037844E-1,5.E-1,3.915317693006E-8));
#11=VECTOR('',#10,6.033811978465E-1);
#12=CARTESIAN_POINT('',(2.496E0,8.702309401077E0,-1.098573599546E-8));
#13=LINE('',#12,#11);
#14=CARTESIAN_POINT('',(0.E0,8.702309401077E0,0.E0));
#15=DIRECTION('',(0.E0,1.E0,0.E0));
#16=DIRECTION('',(1.E0,0.E0,-4.401336061936E-9));
#17=AXIS2_PLACEMENT_3D('',#14,#15,#16);
#19=DIRECTION('',(0.E0,-1.E0,1.261813220165E-9));
#20=VECTOR('',#19,8.706309401077E0);
#21=CARTESIAN_POINT('',(2.496E0,8.702309401077E0,-1.098573599546E-8));
#22=LINE('',#21,#20);
#23=DIRECTION('',(0.E0,-1.E0,0.E0));
#24=VECTOR('',#23,8.706309401077E0);
#25=CARTESIAN_POINT('',(-2.496E0,8.702309401077E0,0.E0));
#26=LINE('',#25,#24);
#27=CARTESIAN_POINT('',(0.E0,-3.999999999992E-3,0.E0));
#28=DIRECTION('',(0.E0,1.E0,0.E0));
#29=DIRECTION('',(1.E0,0.E0,0.E0));
#30=AXIS2_PLACEMENT_3D('',#27,#28,#29);
#32=CARTESIAN_POINT('',(0.E0,-3.999999999992E-3,0.E0));
#33=DIRECTION('',(0.E0,-1.E0,0.E0));
#34=DIRECTION('',(1.E0,0.E0,0.E0));
#35=AXIS2_PLACEMENT_3D('',#32,#33,#34);
#37=CARTESIAN_POINT('',(0.E0,-3.999999999985E-3,0.E0));
#38=DIRECTION('',(0.E0,-1.E0,0.E0));
#39=DIRECTION('',(1.E0,0.E0,0.E0));
#40=AXIS2_PLACEMENT_3D('',#37,#38,#39);
#42=DIRECTION('',(0.E0,1.E0,0.E0));
#43=VECTOR('',#42,9.008E0);
#44=CARTESIAN_POINT('',(4.504E0,-4.E-3,0.E0));
#45=LINE('',#44,#43);
#46=DIRECTION('',(0.E0,1.E0,0.E0));
#47=VECTOR('',#46,9.008E0);
#48=CARTESIAN_POINT('',(-4.504E0,-4.E-3,0.E0));
#49=LINE('',#48,#47);
#50=CARTESIAN_POINT('',(0.E0,-3.999999999985E-3,0.E0));
#51=DIRECTION('',(0.E0,1.E0,0.E0));
#52=DIRECTION('',(1.E0,0.E0,0.E0));
#53=AXIS2_PLACEMENT_3D('',#50,#51,#52);
#55=CARTESIAN_POINT('',(0.E0,9.004E0,0.E0));
#56=DIRECTION('',(0.E0,1.E0,0.E0));
#57=DIRECTION('',(1.E0,0.E0,0.E0));
#58=AXIS2_PLACEMENT_3D('',#55,#56,#57);
#60=CARTESIAN_POINT('',(0.E0,9.004E0,0.E0));
#61=DIRECTION('',(0.E0,-1.E0,0.E0));
#62=DIRECTION('',(1.E0,0.E0,0.E0));
#63=AXIS2_PLACEMENT_3D('',#60,#61,#62);
#65=CARTESIAN_POINT('',(0.E0,9.004E0,0.E0));
#66=DIRECTION('',(0.E0,1.E0,0.E0));
#67=DIRECTION('',(-1.E0,0.E0,-4.186971497459E-9));
#68=AXIS2_PLACEMENT_3D('',#65,#66,#67);
#70=CARTESIAN_POINT('',(0.E0,9.004E0,0.E0));
#71=DIRECTION('',(0.E0,1.E0,0.E0));
#72=DIRECTION('',(1.E0,0.E0,4.186971374994E-9));
#73=AXIS2_PLACEMENT_3D('',#70,#71,#72);
#75=CARTESIAN_POINT('',(4.504E0,-4.E-3,0.E0));
#76=CARTESIAN_POINT('',(4.504E0,9.004E0,0.E0));
#77=VERTEX_POINT('',#75);
#78=VERTEX_POINT('',#76);
#79=CARTESIAN_POINT('',(-4.504E0,-4.E-3,0.E0));
#80=CARTESIAN_POINT('',(-4.504E0,9.004E0,0.E0));
#81=VERTEX_POINT('',#79);
#82=VERTEX_POINT('',#80);
#83=CARTESIAN_POINT('',(2.496E0,-3.999999999993E-3,0.E0));
#84=CARTESIAN_POINT('',(-2.496E0,-3.999999999992E-3,0.E0));
#85=VERTEX_POINT('',#83);
#86=VERTEX_POINT('',#84);
#87=CARTESIAN_POINT('',(-2.496E0,8.702309401077E0,0.E0));
#88=CARTESIAN_POINT('',(2.496E0,8.702309401077E0,-1.098573370215E-8));
#89=VERTEX_POINT('',#87);
#90=VERTEX_POINT('',#88);
#91=CARTESIAN_POINT('',(-3.018543445501E0,9.004E0,-1.263855537015E-8));
#92=CARTESIAN_POINT('',(3.018543445501E0,9.004E0,1.263855573982E-8));
#93=VERTEX_POINT('',#91);
#94=VERTEX_POINT('',#92);
#95=CARTESIAN_POINT('',(0.E0,9.45E0,0.E0));
#96=DIRECTION('',(0.E0,-1.E0,0.E0));
#97=DIRECTION('',(-1.E0,0.E0,0.E0));
#98=AXIS2_PLACEMENT_3D('',#95,#96,#97);
#99=CYLINDRICAL_SURFACE('',#98,2.496E0);
#101=ORIENTED_EDGE('',*,*,#100,.F.);
#103=ORIENTED_EDGE('',*,*,#102,.T.);
#105=ORIENTED_EDGE('',*,*,#104,.F.);
#107=ORIENTED_EDGE('',*,*,#106,.F.);
#108=EDGE_LOOP('',(#101,#103,#105,#107));
#109=FACE_OUTER_BOUND('',#108,.F.);
#110=ADVANCED_FACE('',(#109),#99,.F.);
#111=CARTESIAN_POINT('',(0.E0,8.853154700538E0,0.E0));
#112=DIRECTION('',(0.E0,1.E0,0.E0));
#113=DIRECTION('',(0.E0,0.E0,-1.E0));
#114=AXIS2_PLACEMENT_3D('',#111,#112,#113);
#115=CONICAL_SURFACE('',#114,2.757271722750E0,6.E1);
#116=ORIENTED_EDGE('',*,*,#100,.T.);
#118=ORIENTED_EDGE('',*,*,#117,.T.);
#120=ORIENTED_EDGE('',*,*,#119,.F.);
#122=ORIENTED_EDGE('',*,*,#121,.F.);
#123=EDGE_LOOP('',(#116,#118,#120,#122));
#124=FACE_OUTER_BOUND('',#123,.F.);
#125=ADVANCED_FACE('',(#124),#115,.F.);
#126=CARTESIAN_POINT('',(0.E0,8.853154700538E0,0.E0));
#127=DIRECTION('',(0.E0,1.E0,0.E0));
#128=DIRECTION('',(0.E0,0.E0,-1.E0));
#129=AXIS2_PLACEMENT_3D('',#126,#127,#128);
#130=CONICAL_SURFACE('',#129,2.757271722750E0,6.E1);
#132=ORIENTED_EDGE('',*,*,#131,.T.);
#133=ORIENTED_EDGE('',*,*,#121,.T.);
#135=ORIENTED_EDGE('',*,*,#134,.F.);
#136=ORIENTED_EDGE('',*,*,#117,.F.);
#137=EDGE_LOOP('',(#132,#133,#135,#136));
#138=FACE_OUTER_BOUND('',#137,.F.);
#139=ADVANCED_FACE('',(#138),#130,.F.);
#140=CARTESIAN_POINT('',(0.E0,9.45E0,0.E0));
#141=DIRECTION('',(0.E0,-1.E0,0.E0));
#142=DIRECTION('',(-1.E0,0.E0,0.E0));
#143=AXIS2_PLACEMENT_3D('',#140,#141,#142);
#144=CYLINDRICAL_SURFACE('',#143,2.496E0);
#145=ORIENTED_EDGE('',*,*,#131,.F.);
#146=ORIENTED_EDGE('',*,*,#106,.T.);
#148=ORIENTED_EDGE('',*,*,#147,.T.);
#149=ORIENTED_EDGE('',*,*,#102,.F.);
#150=EDGE_LOOP('',(#145,#146,#148,#149));
#151=FACE_OUTER_BOUND('',#150,.F.);
#152=ADVANCED_FACE('',(#151),#144,.F.);
#153=CARTESIAN_POINT('',(0.E0,-4.E-3,0.E0));
#154=DIRECTION('',(0.E0,-1.E0,0.E0));
#155=DIRECTION('',(-1.E0,0.E0,0.E0));
#156=AXIS2_PLACEMENT_3D('',#153,#154,#155);
#157=PLANE('',#156);
#159=ORIENTED_EDGE('',*,*,#158,.F.);
#161=ORIENTED_EDGE('',*,*,#160,.T.);
#162=EDGE_LOOP('',(#159,#161));
#163=FACE_OUTER_BOUND('',#162,.F.);
#164=ORIENTED_EDGE('',*,*,#147,.F.);
#165=ORIENTED_EDGE('',*,*,#104,.T.);
#166=EDGE_LOOP('',(#164,#165));
#167=FACE_BOUND('',#166,.F.);
#168=ADVANCED_FACE('',(#163,#167),#157,.T.);
#169=CARTESIAN_POINT('',(0.E0,9.45E0,0.E0));
#170=DIRECTION('',(0.E0,-1.E0,0.E0));
#171=DIRECTION('',(-1.E0,0.E0,0.E0));
#172=AXIS2_PLACEMENT_3D('',#169,#170,#171);
#173=CYLINDRICAL_SURFACE('',#172,4.504E0);
#175=ORIENTED_EDGE('',*,*,#174,.F.);
#176=ORIENTED_EDGE('',*,*,#158,.T.);
#178=ORIENTED_EDGE('',*,*,#177,.T.);
#180=ORIENTED_EDGE('',*,*,#179,.F.);
#181=EDGE_LOOP('',(#175,#176,#178,#180));
#182=FACE_OUTER_BOUND('',#181,.F.);
#183=ADVANCED_FACE('',(#182),#173,.T.);
#184=CARTESIAN_POINT('',(0.E0,9.45E0,0.E0));
#185=DIRECTION('',(0.E0,-1.E0,0.E0));
#186=DIRECTION('',(-1.E0,0.E0,0.E0));
#187=AXIS2_PLACEMENT_3D('',#184,#185,#186);
#188=CYLINDRICAL_SURFACE('',#187,4.504E0);
#189=ORIENTED_EDGE('',*,*,#174,.T.);
#191=ORIENTED_EDGE('',*,*,#190,.T.);
#192=ORIENTED_EDGE('',*,*,#177,.F.);
#193=ORIENTED_EDGE('',*,*,#160,.F.);
#194=EDGE_LOOP('',(#189,#191,#192,#193));
#195=FACE_OUTER_BOUND('',#194,.F.);
#196=ADVANCED_FACE('',(#195),#188,.T.);
#197=CARTESIAN_POINT('',(0.E0,9.004E0,0.E0));
#198=DIRECTION('',(0.E0,-1.E0,0.E0));
#199=DIRECTION('',(-1.E0,0.E0,0.E0));
#200=AXIS2_PLACEMENT_3D('',#197,#198,#199);
#201=PLANE('',#200);
#202=ORIENTED_EDGE('',*,*,#190,.F.);
#203=ORIENTED_EDGE('',*,*,#179,.T.);
#204=EDGE_LOOP('',(#202,#203));
#205=FACE_OUTER_BOUND('',#204,.F.);
#206=ORIENTED_EDGE('',*,*,#119,.T.);
#207=ORIENTED_EDGE('',*,*,#134,.T.);
#208=EDGE_LOOP('',(#206,#207));
#209=FACE_BOUND('',#208,.F.);
#210=ADVANCED_FACE('',(#205,#209),#201,.F.);
#211=CLOSED_SHELL('',(#110,#125,#139,#152,#168,#183,#196,#210));
#212=MANIFOLD_SOLID_BREP('',#211);
#214=DIMENSIONAL_EXPONENTS(0.E0,0.E0,0.E0,0.E0,0.E0,0.E0,0.E0);
#216=PLANE_ANGLE_MEASURE_WITH_UNIT(PLANE_ANGLE_MEASURE(1.745329251994E-2),#215);
#217=(CONVERSION_BASED_UNIT('DEGREE',#216)NAMED_UNIT(*)PLANE_ANGLE_UNIT());
#219=UNCERTAINTY_MEASURE_WITH_UNIT(LENGTH_MEASURE(3.937007874016E-6),#213,
'closure',
'Maximum model space distance between geometric entities at asserted connectivities');
#220=(GEOMETRIC_REPRESENTATION_CONTEXT(3)GLOBAL_UNCERTAINTY_ASSIGNED_CONTEXT((
#219))GLOBAL_UNIT_ASSIGNED_CONTEXT((#213,#217,#218))REPRESENTATION_CONTEXT
('ID1','3'));
#222=APPLICATION_CONTEXT(
'CONFIGURATION CONTROLLED 3D DESIGNS OF MECHANICAL PARTS AND ASSEMBLIES');
#223=APPLICATION_PROTOCOL_DEFINITION('international standard',
'config_control_design',1994,#222);
#224=DESIGN_CONTEXT('',#222,'design');
#225=MECHANICAL_CONTEXT('',#222,'mechanical');
#226=PRODUCT('00044909104ABM','00044909104ABM','NOT SPECIFIED',(#225));
#227=PRODUCT_DEFINITION_FORMATION_WITH_SPECIFIED_SOURCE('1','LAST_VERSION',#226,
.MADE.);
#231=PRODUCT_CATEGORY('part','');
#232=PRODUCT_RELATED_PRODUCT_CATEGORY('detail','',(#226));
#233=PRODUCT_CATEGORY_RELATIONSHIP('','',#231,#232);
#234=SECURITY_CLASSIFICATION_LEVEL('unclassified');
#235=SECURITY_CLASSIFICATION('','',#234);
#236=CC_DESIGN_SECURITY_CLASSIFICATION(#235,(#227));
#237=APPROVAL_STATUS('approved');
#238=APPROVAL(#237,'');
#239=CC_DESIGN_APPROVAL(#238,(#235,#227,#228));
#240=CALENDAR_DATE(120,24,2);
#241=COORDINATED_UNIVERSAL_TIME_OFFSET(1,0,.AHEAD.);
#242=LOCAL_TIME(9,43,3.9E1,#241);
#243=DATE_AND_TIME(#240,#242);
#244=APPROVAL_DATE_TIME(#243,#238);
#245=DATE_TIME_ROLE('creation_date');
#246=CC_DESIGN_DATE_AND_TIME_ASSIGNMENT(#243,#245,(#228));
#247=DATE_TIME_ROLE('classification_date');
#248=CC_DESIGN_DATE_AND_TIME_ASSIGNMENT(#243,#247,(#235));
#249=PERSON('UNSPECIFIED','UNSPECIFIED',$,$,$,$);
#250=ORGANIZATION('UNSPECIFIED','UNSPECIFIED','UNSPECIFIED');
#251=PERSON_AND_ORGANIZATION(#249,#250);
#252=APPROVAL_ROLE('approver');
#253=APPROVAL_PERSON_ORGANIZATION(#251,#238,#252);
#254=PERSON_AND_ORGANIZATION_ROLE('creator');
#255=CC_DESIGN_PERSON_AND_ORGANIZATION_ASSIGNMENT(#251,#254,(#227,#228));
#256=PERSON_AND_ORGANIZATION_ROLE('design_supplier');
#257=CC_DESIGN_PERSON_AND_ORGANIZATION_ASSIGNMENT(#251,#256,(#227));
#258=PERSON_AND_ORGANIZATION_ROLE('classification_officer');
#259=CC_DESIGN_PERSON_AND_ORGANIZATION_ASSIGNMENT(#251,#258,(#235));
#260=PERSON_AND_ORGANIZATION_ROLE('design_owner');
#261=CC_DESIGN_PERSON_AND_ORGANIZATION_ASSIGNMENT(#251,#260,(#226));
#5=CIRCLE('',#4,2.496E0);
#18=CIRCLE('',#17,2.496E0);
#31=CIRCLE('',#30,2.496E0);
#36=CIRCLE('',#35,2.496E0);
#41=CIRCLE('',#40,4.504E0);
#54=CIRCLE('',#53,4.504E0);
#59=CIRCLE('',#58,4.504E0);
#64=CIRCLE('',#63,4.504E0);
#69=CIRCLE('',#68,3.018543445501E0);
#74=CIRCLE('',#73,3.018543445501E0);
#100=EDGE_CURVE('',#89,#90,#5,.T.);
#102=EDGE_CURVE('',#89,#86,#26,.T.);
#104=EDGE_CURVE('',#85,#86,#36,.T.);
#106=EDGE_CURVE('',#90,#85,#22,.T.);
#117=EDGE_CURVE('',#90,#94,#13,.T.);
#119=EDGE_CURVE('',#93,#94,#69,.T.);
#121=EDGE_CURVE('',#89,#93,#9,.T.);
#131=EDGE_CURVE('',#90,#89,#18,.T.);
#134=EDGE_CURVE('',#94,#93,#74,.T.);
#147=EDGE_CURVE('',#85,#86,#31,.T.);
#158=EDGE_CURVE('',#77,#81,#41,.T.);
#160=EDGE_CURVE('',#77,#81,#54,.T.);
#174=EDGE_CURVE('',#77,#78,#45,.T.);
#177=EDGE_CURVE('',#81,#82,#49,.T.);
#179=EDGE_CURVE('',#78,#82,#64,.T.);
#190=EDGE_CURVE('',#78,#82,#59,.T.);
#213=(LENGTH_UNIT()NAMED_UNIT(*)SI_UNIT(.MILLI.,.METRE.));
#215=(NAMED_UNIT(*)PLANE_ANGLE_UNIT()SI_UNIT($,.RADIAN.));
#218=(NAMED_UNIT(*)SI_UNIT($,.STERADIAN.)SOLID_ANGLE_UNIT());
#221=ADVANCED_BREP_SHAPE_REPRESENTATION('',(#212),#220);
#228=PRODUCT_DEFINITION('design','',#227,#224);
#229=PRODUCT_DEFINITION_SHAPE('','SHAPE FOR 00044909104ABM.',#228);
#230=SHAPE_DEFINITION_REPRESENTATION(#229,#221);
ENDSEC;
END-ISO-10303-21;
