ISO-10303-21;
HEADER;
FILE_DESCRIPTION((''),'2;1');
FILE_NAME('02405500504','2020-02-03T',('presta_be4'),(''),
'CREO PARAMETRIC BY PTC INC, 2018360','CREO PARAMETRIC BY PTC INC, 2018360','');
FILE_SCHEMA(('CONFIG_CONTROL_DESIGN'));
ENDSEC;
DATA;
#1=CARTESIAN_POINT('',(9.E0,0.E0,0.E0));
#2=DIRECTION('',(0.E0,0.E0,1.E0));
#3=DIRECTION('',(-9.340497736159E-1,3.571428571429E-1,0.E0));
#4=AXIS2_PLACEMENT_3D('',#1,#2,#3);
#6=CARTESIAN_POINT('',(4.42E1,0.E0,0.E0));
#7=DIRECTION('',(0.E0,0.E0,1.E0));
#8=DIRECTION('',(9.340497736159E-1,-3.571428571429E-1,0.E0));
#9=AXIS2_PLACEMENT_3D('',#6,#7,#8);
#11=CARTESIAN_POINT('',(5.32E1,0.E0,0.E0));
#12=DIRECTION('',(0.E0,0.E0,-1.E0));
#13=DIRECTION('',(1.E0,0.E0,0.E0));
#14=AXIS2_PLACEMENT_3D('',#11,#12,#13);
#16=CARTESIAN_POINT('',(5.32E1,0.E0,0.E0));
#17=DIRECTION('',(0.E0,0.E0,-1.E0));
#18=DIRECTION('',(-1.E0,0.E0,0.E0));
#19=AXIS2_PLACEMENT_3D('',#16,#17,#18);
#21=CARTESIAN_POINT('',(3.99E1,0.E0,0.E0));
#22=DIRECTION('',(0.E0,0.E0,-1.E0));
#23=DIRECTION('',(1.E0,0.E0,0.E0));
#24=AXIS2_PLACEMENT_3D('',#21,#22,#23);
#26=CARTESIAN_POINT('',(3.99E1,0.E0,0.E0));
#27=DIRECTION('',(0.E0,0.E0,-1.E0));
#28=DIRECTION('',(-1.E0,0.E0,0.E0));
#29=AXIS2_PLACEMENT_3D('',#26,#27,#28);
#31=CARTESIAN_POINT('',(2.66E1,0.E0,0.E0));
#32=DIRECTION('',(0.E0,0.E0,-1.E0));
#33=DIRECTION('',(1.E0,0.E0,0.E0));
#34=AXIS2_PLACEMENT_3D('',#31,#32,#33);
#36=CARTESIAN_POINT('',(2.66E1,0.E0,0.E0));
#37=DIRECTION('',(0.E0,0.E0,-1.E0));
#38=DIRECTION('',(-1.E0,0.E0,0.E0));
#39=AXIS2_PLACEMENT_3D('',#36,#37,#38);
#41=CARTESIAN_POINT('',(1.33E1,0.E0,0.E0));
#42=DIRECTION('',(0.E0,0.E0,-1.E0));
#43=DIRECTION('',(1.E0,0.E0,0.E0));
#44=AXIS2_PLACEMENT_3D('',#41,#42,#43);
#46=CARTESIAN_POINT('',(1.33E1,0.E0,0.E0));
#47=DIRECTION('',(0.E0,0.E0,-1.E0));
#48=DIRECTION('',(-1.E0,0.E0,0.E0));
#49=AXIS2_PLACEMENT_3D('',#46,#47,#48);
#51=CARTESIAN_POINT('',(0.E0,0.E0,0.E0));
#52=DIRECTION('',(0.E0,0.E0,-1.E0));
#53=DIRECTION('',(1.E0,0.E0,0.E0));
#54=AXIS2_PLACEMENT_3D('',#51,#52,#53);
#56=CARTESIAN_POINT('',(0.E0,0.E0,0.E0));
#57=DIRECTION('',(0.E0,0.E0,-1.E0));
#58=DIRECTION('',(-1.E0,0.E0,0.E0));
#59=AXIS2_PLACEMENT_3D('',#56,#57,#58);
#61=DIRECTION('',(0.E0,0.E0,1.E0));
#62=VECTOR('',#61,1.E0);
#63=CARTESIAN_POINT('',(-4.076696830622E0,5.E0,0.E0));
#64=LINE('',#63,#62);
#65=DIRECTION('',(1.E0,0.E0,0.E0));
#66=VECTOR('',#65,6.135339366124E1);
#67=CARTESIAN_POINT('',(-4.076696830622E0,5.E0,0.E0));
#68=LINE('',#67,#66);
#69=DIRECTION('',(0.E0,0.E0,1.E0));
#70=VECTOR('',#69,1.E0);
#71=CARTESIAN_POINT('',(5.727669683062E1,5.E0,0.E0));
#72=LINE('',#71,#70);
#73=DIRECTION('',(-1.E0,0.E0,0.E0));
#74=VECTOR('',#73,6.135339366124E1);
#75=CARTESIAN_POINT('',(5.727669683062E1,5.E0,1.E0));
#76=LINE('',#75,#74);
#77=DIRECTION('',(0.E0,0.E0,1.E0));
#78=VECTOR('',#77,1.E0);
#79=CARTESIAN_POINT('',(-4.076696830622E0,-5.E0,0.E0));
#80=LINE('',#79,#78);
#81=DIRECTION('',(1.E0,0.E0,0.E0));
#82=VECTOR('',#81,6.135339366124E1);
#83=CARTESIAN_POINT('',(-4.076696830622E0,-5.E0,1.E0));
#84=LINE('',#83,#82);
#85=DIRECTION('',(0.E0,0.E0,1.E0));
#86=VECTOR('',#85,1.E0);
#87=CARTESIAN_POINT('',(5.727669683062E1,-5.E0,0.E0));
#88=LINE('',#87,#86);
#89=DIRECTION('',(-1.E0,0.E0,0.E0));
#90=VECTOR('',#89,6.135339366124E1);
#91=CARTESIAN_POINT('',(5.727669683062E1,-5.E0,0.E0));
#92=LINE('',#91,#90);
#93=CARTESIAN_POINT('',(9.E0,0.E0,1.E0));
#94=DIRECTION('',(0.E0,0.E0,1.E0));
#95=DIRECTION('',(-9.340497736159E-1,3.571428571429E-1,0.E0));
#96=AXIS2_PLACEMENT_3D('',#93,#94,#95);
#98=CARTESIAN_POINT('',(4.42E1,0.E0,1.E0));
#99=DIRECTION('',(0.E0,0.E0,1.E0));
#100=DIRECTION('',(9.340497736159E-1,-3.571428571429E-1,0.E0));
#101=AXIS2_PLACEMENT_3D('',#98,#99,#100);
#103=CARTESIAN_POINT('',(5.32E1,0.E0,1.E0));
#104=DIRECTION('',(0.E0,0.E0,-1.E0));
#105=DIRECTION('',(1.E0,0.E0,0.E0));
#106=AXIS2_PLACEMENT_3D('',#103,#104,#105);
#108=CARTESIAN_POINT('',(5.32E1,0.E0,1.E0));
#109=DIRECTION('',(0.E0,0.E0,-1.E0));
#110=DIRECTION('',(-1.E0,0.E0,0.E0));
#111=AXIS2_PLACEMENT_3D('',#108,#109,#110);
#113=CARTESIAN_POINT('',(3.99E1,0.E0,1.E0));
#114=DIRECTION('',(0.E0,0.E0,-1.E0));
#115=DIRECTION('',(1.E0,0.E0,0.E0));
#116=AXIS2_PLACEMENT_3D('',#113,#114,#115);
#118=CARTESIAN_POINT('',(3.99E1,0.E0,1.E0));
#119=DIRECTION('',(0.E0,0.E0,-1.E0));
#120=DIRECTION('',(-1.E0,0.E0,0.E0));
#121=AXIS2_PLACEMENT_3D('',#118,#119,#120);
#123=CARTESIAN_POINT('',(2.66E1,0.E0,1.E0));
#124=DIRECTION('',(0.E0,0.E0,-1.E0));
#125=DIRECTION('',(1.E0,0.E0,0.E0));
#126=AXIS2_PLACEMENT_3D('',#123,#124,#125);
#128=CARTESIAN_POINT('',(2.66E1,0.E0,1.E0));
#129=DIRECTION('',(0.E0,0.E0,-1.E0));
#130=DIRECTION('',(-1.E0,0.E0,0.E0));
#131=AXIS2_PLACEMENT_3D('',#128,#129,#130);
#133=CARTESIAN_POINT('',(1.33E1,0.E0,1.E0));
#134=DIRECTION('',(0.E0,0.E0,-1.E0));
#135=DIRECTION('',(1.E0,0.E0,0.E0));
#136=AXIS2_PLACEMENT_3D('',#133,#134,#135);
#138=CARTESIAN_POINT('',(1.33E1,0.E0,1.E0));
#139=DIRECTION('',(0.E0,0.E0,-1.E0));
#140=DIRECTION('',(-1.E0,0.E0,0.E0));
#141=AXIS2_PLACEMENT_3D('',#138,#139,#140);
#143=CARTESIAN_POINT('',(0.E0,0.E0,1.E0));
#144=DIRECTION('',(0.E0,0.E0,-1.E0));
#145=DIRECTION('',(1.E0,0.E0,0.E0));
#146=AXIS2_PLACEMENT_3D('',#143,#144,#145);
#148=CARTESIAN_POINT('',(0.E0,0.E0,1.E0));
#149=DIRECTION('',(0.E0,0.E0,-1.E0));
#150=DIRECTION('',(-1.E0,0.E0,0.E0));
#151=AXIS2_PLACEMENT_3D('',#148,#149,#150);
#153=DIRECTION('',(0.E0,0.E0,1.E0));
#154=VECTOR('',#153,1.E0);
#155=CARTESIAN_POINT('',(5.595E1,0.E0,0.E0));
#156=LINE('',#155,#154);
#157=DIRECTION('',(0.E0,0.E0,1.E0));
#158=VECTOR('',#157,1.E0);
#159=CARTESIAN_POINT('',(5.045E1,0.E0,0.E0));
#160=LINE('',#159,#158);
#161=DIRECTION('',(0.E0,0.E0,1.E0));
#162=VECTOR('',#161,1.E0);
#163=CARTESIAN_POINT('',(4.265E1,0.E0,0.E0));
#164=LINE('',#163,#162);
#165=DIRECTION('',(0.E0,0.E0,1.E0));
#166=VECTOR('',#165,1.E0);
#167=CARTESIAN_POINT('',(3.715E1,0.E0,0.E0));
#168=LINE('',#167,#166);
#169=DIRECTION('',(0.E0,0.E0,1.E0));
#170=VECTOR('',#169,1.E0);
#171=CARTESIAN_POINT('',(2.935E1,0.E0,0.E0));
#172=LINE('',#171,#170);
#173=DIRECTION('',(0.E0,0.E0,1.E0));
#174=VECTOR('',#173,1.E0);
#175=CARTESIAN_POINT('',(2.385E1,0.E0,0.E0));
#176=LINE('',#175,#174);
#177=DIRECTION('',(0.E0,0.E0,1.E0));
#178=VECTOR('',#177,1.E0);
#179=CARTESIAN_POINT('',(1.605E1,0.E0,0.E0));
#180=LINE('',#179,#178);
#181=DIRECTION('',(0.E0,0.E0,1.E0));
#182=VECTOR('',#181,1.E0);
#183=CARTESIAN_POINT('',(1.055E1,0.E0,0.E0));
#184=LINE('',#183,#182);
#185=DIRECTION('',(0.E0,0.E0,1.E0));
#186=VECTOR('',#185,1.E0);
#187=CARTESIAN_POINT('',(2.75E0,0.E0,0.E0));
#188=LINE('',#187,#186);
#189=DIRECTION('',(0.E0,0.E0,1.E0));
#190=VECTOR('',#189,1.E0);
#191=CARTESIAN_POINT('',(-2.75E0,0.E0,0.E0));
#192=LINE('',#191,#190);
#193=CARTESIAN_POINT('',(2.75E0,0.E0,0.E0));
#194=CARTESIAN_POINT('',(-2.75E0,0.E0,0.E0));
#195=VERTEX_POINT('',#193);
#196=VERTEX_POINT('',#194);
#197=CARTESIAN_POINT('',(2.75E0,0.E0,1.E0));
#198=CARTESIAN_POINT('',(-2.75E0,0.E0,1.E0));
#199=VERTEX_POINT('',#197);
#200=VERTEX_POINT('',#198);
#201=CARTESIAN_POINT('',(1.605E1,0.E0,0.E0));
#202=CARTESIAN_POINT('',(1.055E1,0.E0,0.E0));
#203=VERTEX_POINT('',#201);
#204=VERTEX_POINT('',#202);
#205=CARTESIAN_POINT('',(1.605E1,0.E0,1.E0));
#206=CARTESIAN_POINT('',(1.055E1,0.E0,1.E0));
#207=VERTEX_POINT('',#205);
#208=VERTEX_POINT('',#206);
#209=CARTESIAN_POINT('',(-4.076696830622E0,5.E0,0.E0));
#210=CARTESIAN_POINT('',(-4.076696830622E0,-5.E0,0.E0));
#211=VERTEX_POINT('',#209);
#212=VERTEX_POINT('',#210);
#213=CARTESIAN_POINT('',(-4.076696830622E0,5.E0,1.E0));
#214=CARTESIAN_POINT('',(-4.076696830622E0,-5.E0,1.E0));
#215=VERTEX_POINT('',#213);
#216=VERTEX_POINT('',#214);
#217=CARTESIAN_POINT('',(5.727669683062E1,-5.E0,0.E0));
#218=CARTESIAN_POINT('',(5.727669683062E1,5.E0,0.E0));
#219=VERTEX_POINT('',#217);
#220=VERTEX_POINT('',#218);
#221=CARTESIAN_POINT('',(5.727669683062E1,-5.E0,1.E0));
#222=CARTESIAN_POINT('',(5.727669683062E1,5.E0,1.E0));
#223=VERTEX_POINT('',#221);
#224=VERTEX_POINT('',#222);
#225=CARTESIAN_POINT('',(2.935E1,0.E0,0.E0));
#226=CARTESIAN_POINT('',(2.385E1,0.E0,0.E0));
#227=VERTEX_POINT('',#225);
#228=VERTEX_POINT('',#226);
#229=CARTESIAN_POINT('',(2.935E1,0.E0,1.E0));
#230=CARTESIAN_POINT('',(2.385E1,0.E0,1.E0));
#231=VERTEX_POINT('',#229);
#232=VERTEX_POINT('',#230);
#233=CARTESIAN_POINT('',(4.265E1,0.E0,0.E0));
#234=CARTESIAN_POINT('',(3.715E1,0.E0,0.E0));
#235=VERTEX_POINT('',#233);
#236=VERTEX_POINT('',#234);
#237=CARTESIAN_POINT('',(4.265E1,0.E0,1.E0));
#238=CARTESIAN_POINT('',(3.715E1,0.E0,1.E0));
#239=VERTEX_POINT('',#237);
#240=VERTEX_POINT('',#238);
#241=CARTESIAN_POINT('',(5.595E1,0.E0,0.E0));
#242=CARTESIAN_POINT('',(5.045E1,0.E0,0.E0));
#243=VERTEX_POINT('',#241);
#244=VERTEX_POINT('',#242);
#245=CARTESIAN_POINT('',(5.595E1,0.E0,1.E0));
#246=CARTESIAN_POINT('',(5.045E1,0.E0,1.E0));
#247=VERTEX_POINT('',#245);
#248=VERTEX_POINT('',#246);
#249=CARTESIAN_POINT('',(0.E0,0.E0,0.E0));
#250=DIRECTION('',(0.E0,0.E0,1.E0));
#251=DIRECTION('',(1.E0,0.E0,0.E0));
#252=AXIS2_PLACEMENT_3D('',#249,#250,#251);
#253=PLANE('',#252);
#255=ORIENTED_EDGE('',*,*,#254,.T.);
#257=ORIENTED_EDGE('',*,*,#256,.F.);
#259=ORIENTED_EDGE('',*,*,#258,.T.);
#261=ORIENTED_EDGE('',*,*,#260,.F.);
#262=EDGE_LOOP('',(#255,#257,#259,#261));
#263=FACE_OUTER_BOUND('',#262,.F.);
#265=ORIENTED_EDGE('',*,*,#264,.T.);
#267=ORIENTED_EDGE('',*,*,#266,.T.);
#268=EDGE_LOOP('',(#265,#267));
#269=FACE_BOUND('',#268,.F.);
#271=ORIENTED_EDGE('',*,*,#270,.T.);
#273=ORIENTED_EDGE('',*,*,#272,.T.);
#274=EDGE_LOOP('',(#271,#273));
#275=FACE_BOUND('',#274,.F.);
#277=ORIENTED_EDGE('',*,*,#276,.T.);
#279=ORIENTED_EDGE('',*,*,#278,.T.);
#280=EDGE_LOOP('',(#277,#279));
#281=FACE_BOUND('',#280,.F.);
#283=ORIENTED_EDGE('',*,*,#282,.T.);
#285=ORIENTED_EDGE('',*,*,#284,.T.);
#286=EDGE_LOOP('',(#283,#285));
#287=FACE_BOUND('',#286,.F.);
#289=ORIENTED_EDGE('',*,*,#288,.T.);
#291=ORIENTED_EDGE('',*,*,#290,.T.);
#292=EDGE_LOOP('',(#289,#291));
#293=FACE_BOUND('',#292,.F.);
#294=ADVANCED_FACE('',(#263,#269,#275,#281,#287,#293),#253,.F.);
#295=CARTESIAN_POINT('',(9.E0,0.E0,-1.E-1));
#296=DIRECTION('',(0.E0,0.E0,1.E0));
#297=DIRECTION('',(1.E0,0.E0,0.E0));
#298=AXIS2_PLACEMENT_3D('',#295,#296,#297);
#299=CYLINDRICAL_SURFACE('',#298,1.4E1);
#300=ORIENTED_EDGE('',*,*,#254,.F.);
#302=ORIENTED_EDGE('',*,*,#301,.T.);
#304=ORIENTED_EDGE('',*,*,#303,.T.);
#306=ORIENTED_EDGE('',*,*,#305,.F.);
#307=EDGE_LOOP('',(#300,#302,#304,#306));
#308=FACE_OUTER_BOUND('',#307,.F.);
#309=ADVANCED_FACE('',(#308),#299,.T.);
#310=CARTESIAN_POINT('',(6.65E0,5.E0,0.E0));
#311=DIRECTION('',(0.E0,1.E0,0.E0));
#312=DIRECTION('',(-1.E0,0.E0,0.E0));
#313=AXIS2_PLACEMENT_3D('',#310,#311,#312);
#314=PLANE('',#313);
#315=ORIENTED_EDGE('',*,*,#301,.F.);
#316=ORIENTED_EDGE('',*,*,#260,.T.);
#318=ORIENTED_EDGE('',*,*,#317,.T.);
#320=ORIENTED_EDGE('',*,*,#319,.T.);
#321=EDGE_LOOP('',(#315,#316,#318,#320));
#322=FACE_OUTER_BOUND('',#321,.F.);
#323=ADVANCED_FACE('',(#322),#314,.T.);
#324=CARTESIAN_POINT('',(4.42E1,0.E0,-1.E-1));
#325=DIRECTION('',(0.E0,0.E0,1.E0));
#326=DIRECTION('',(1.E0,0.E0,0.E0));
#327=AXIS2_PLACEMENT_3D('',#324,#325,#326);
#328=CYLINDRICAL_SURFACE('',#327,1.4E1);
#329=ORIENTED_EDGE('',*,*,#258,.F.);
#331=ORIENTED_EDGE('',*,*,#330,.T.);
#333=ORIENTED_EDGE('',*,*,#332,.T.);
#334=ORIENTED_EDGE('',*,*,#317,.F.);
#335=EDGE_LOOP('',(#329,#331,#333,#334));
#336=FACE_OUTER_BOUND('',#335,.F.);
#337=ADVANCED_FACE('',(#336),#328,.T.);
#338=CARTESIAN_POINT('',(-6.65E0,-5.E0,0.E0));
#339=DIRECTION('',(0.E0,-1.E0,0.E0));
#340=DIRECTION('',(1.E0,0.E0,0.E0));
#341=AXIS2_PLACEMENT_3D('',#338,#339,#340);
#342=PLANE('',#341);
#343=ORIENTED_EDGE('',*,*,#305,.T.);
#345=ORIENTED_EDGE('',*,*,#344,.T.);
#346=ORIENTED_EDGE('',*,*,#330,.F.);
#347=ORIENTED_EDGE('',*,*,#256,.T.);
#348=EDGE_LOOP('',(#343,#345,#346,#347));
#349=FACE_OUTER_BOUND('',#348,.F.);
#350=ADVANCED_FACE('',(#349),#342,.T.);
#351=CARTESIAN_POINT('',(0.E0,0.E0,1.E0));
#352=DIRECTION('',(0.E0,0.E0,1.E0));
#353=DIRECTION('',(1.E0,0.E0,0.E0));
#354=AXIS2_PLACEMENT_3D('',#351,#352,#353);
#355=PLANE('',#354);
#356=ORIENTED_EDGE('',*,*,#303,.F.);
#357=ORIENTED_EDGE('',*,*,#319,.F.);
#358=ORIENTED_EDGE('',*,*,#332,.F.);
#359=ORIENTED_EDGE('',*,*,#344,.F.);
#360=EDGE_LOOP('',(#356,#357,#358,#359));
#361=FACE_OUTER_BOUND('',#360,.F.);
#363=ORIENTED_EDGE('',*,*,#362,.F.);
#365=ORIENTED_EDGE('',*,*,#364,.F.);
#366=EDGE_LOOP('',(#363,#365));
#367=FACE_BOUND('',#366,.F.);
#369=ORIENTED_EDGE('',*,*,#368,.F.);
#371=ORIENTED_EDGE('',*,*,#370,.F.);
#372=EDGE_LOOP('',(#369,#371));
#373=FACE_BOUND('',#372,.F.);
#375=ORIENTED_EDGE('',*,*,#374,.F.);
#377=ORIENTED_EDGE('',*,*,#376,.F.);
#378=EDGE_LOOP('',(#375,#377));
#379=FACE_BOUND('',#378,.F.);
#381=ORIENTED_EDGE('',*,*,#380,.F.);
#383=ORIENTED_EDGE('',*,*,#382,.F.);
#384=EDGE_LOOP('',(#381,#383));
#385=FACE_BOUND('',#384,.F.);
#387=ORIENTED_EDGE('',*,*,#386,.F.);
#389=ORIENTED_EDGE('',*,*,#388,.F.);
#390=EDGE_LOOP('',(#387,#389));
#391=FACE_BOUND('',#390,.F.);
#392=ADVANCED_FACE('',(#361,#367,#373,#379,#385,#391),#355,.T.);
#393=CARTESIAN_POINT('',(5.32E1,0.E0,0.E0));
#394=DIRECTION('',(0.E0,0.E0,1.E0));
#395=DIRECTION('',(1.E0,0.E0,0.E0));
#396=AXIS2_PLACEMENT_3D('',#393,#394,#395);
#397=CYLINDRICAL_SURFACE('',#396,2.75E0);
#398=ORIENTED_EDGE('',*,*,#264,.F.);
#400=ORIENTED_EDGE('',*,*,#399,.T.);
#401=ORIENTED_EDGE('',*,*,#362,.T.);
#403=ORIENTED_EDGE('',*,*,#402,.F.);
#404=EDGE_LOOP('',(#398,#400,#401,#403));
#405=FACE_OUTER_BOUND('',#404,.F.);
#406=ADVANCED_FACE('',(#405),#397,.F.);
#407=CARTESIAN_POINT('',(5.32E1,0.E0,0.E0));
#408=DIRECTION('',(0.E0,0.E0,1.E0));
#409=DIRECTION('',(1.E0,0.E0,0.E0));
#410=AXIS2_PLACEMENT_3D('',#407,#408,#409);
#411=CYLINDRICAL_SURFACE('',#410,2.75E0);
#412=ORIENTED_EDGE('',*,*,#266,.F.);
#413=ORIENTED_EDGE('',*,*,#402,.T.);
#414=ORIENTED_EDGE('',*,*,#364,.T.);
#415=ORIENTED_EDGE('',*,*,#399,.F.);
#416=EDGE_LOOP('',(#412,#413,#414,#415));
#417=FACE_OUTER_BOUND('',#416,.F.);
#418=ADVANCED_FACE('',(#417),#411,.F.);
#419=CARTESIAN_POINT('',(3.99E1,0.E0,0.E0));
#420=DIRECTION('',(0.E0,0.E0,1.E0));
#421=DIRECTION('',(1.E0,0.E0,0.E0));
#422=AXIS2_PLACEMENT_3D('',#419,#420,#421);
#423=CYLINDRICAL_SURFACE('',#422,2.75E0);
#424=ORIENTED_EDGE('',*,*,#270,.F.);
#426=ORIENTED_EDGE('',*,*,#425,.T.);
#427=ORIENTED_EDGE('',*,*,#368,.T.);
#429=ORIENTED_EDGE('',*,*,#428,.F.);
#430=EDGE_LOOP('',(#424,#426,#427,#429));
#431=FACE_OUTER_BOUND('',#430,.F.);
#432=ADVANCED_FACE('',(#431),#423,.F.);
#433=CARTESIAN_POINT('',(3.99E1,0.E0,0.E0));
#434=DIRECTION('',(0.E0,0.E0,1.E0));
#435=DIRECTION('',(1.E0,0.E0,0.E0));
#436=AXIS2_PLACEMENT_3D('',#433,#434,#435);
#437=CYLINDRICAL_SURFACE('',#436,2.75E0);
#438=ORIENTED_EDGE('',*,*,#272,.F.);
#439=ORIENTED_EDGE('',*,*,#428,.T.);
#440=ORIENTED_EDGE('',*,*,#370,.T.);
#441=ORIENTED_EDGE('',*,*,#425,.F.);
#442=EDGE_LOOP('',(#438,#439,#440,#441));
#443=FACE_OUTER_BOUND('',#442,.F.);
#444=ADVANCED_FACE('',(#443),#437,.F.);
#445=CARTESIAN_POINT('',(2.66E1,0.E0,0.E0));
#446=DIRECTION('',(0.E0,0.E0,1.E0));
#447=DIRECTION('',(1.E0,0.E0,0.E0));
#448=AXIS2_PLACEMENT_3D('',#445,#446,#447);
#449=CYLINDRICAL_SURFACE('',#448,2.75E0);
#450=ORIENTED_EDGE('',*,*,#276,.F.);
#452=ORIENTED_EDGE('',*,*,#451,.T.);
#453=ORIENTED_EDGE('',*,*,#374,.T.);
#455=ORIENTED_EDGE('',*,*,#454,.F.);
#456=EDGE_LOOP('',(#450,#452,#453,#455));
#457=FACE_OUTER_BOUND('',#456,.F.);
#458=ADVANCED_FACE('',(#457),#449,.F.);
#459=CARTESIAN_POINT('',(2.66E1,0.E0,0.E0));
#460=DIRECTION('',(0.E0,0.E0,1.E0));
#461=DIRECTION('',(1.E0,0.E0,0.E0));
#462=AXIS2_PLACEMENT_3D('',#459,#460,#461);
#463=CYLINDRICAL_SURFACE('',#462,2.75E0);
#464=ORIENTED_EDGE('',*,*,#278,.F.);
#465=ORIENTED_EDGE('',*,*,#454,.T.);
#466=ORIENTED_EDGE('',*,*,#376,.T.);
#467=ORIENTED_EDGE('',*,*,#451,.F.);
#468=EDGE_LOOP('',(#464,#465,#466,#467));
#469=FACE_OUTER_BOUND('',#468,.F.);
#470=ADVANCED_FACE('',(#469),#463,.F.);
#471=CARTESIAN_POINT('',(1.33E1,0.E0,0.E0));
#472=DIRECTION('',(0.E0,0.E0,1.E0));
#473=DIRECTION('',(1.E0,0.E0,0.E0));
#474=AXIS2_PLACEMENT_3D('',#471,#472,#473);
#475=CYLINDRICAL_SURFACE('',#474,2.75E0);
#476=ORIENTED_EDGE('',*,*,#282,.F.);
#478=ORIENTED_EDGE('',*,*,#477,.T.);
#479=ORIENTED_EDGE('',*,*,#380,.T.);
#481=ORIENTED_EDGE('',*,*,#480,.F.);
#482=EDGE_LOOP('',(#476,#478,#479,#481));
#483=FACE_OUTER_BOUND('',#482,.F.);
#484=ADVANCED_FACE('',(#483),#475,.F.);
#485=CARTESIAN_POINT('',(1.33E1,0.E0,0.E0));
#486=DIRECTION('',(0.E0,0.E0,1.E0));
#487=DIRECTION('',(1.E0,0.E0,0.E0));
#488=AXIS2_PLACEMENT_3D('',#485,#486,#487);
#489=CYLINDRICAL_SURFACE('',#488,2.75E0);
#490=ORIENTED_EDGE('',*,*,#284,.F.);
#491=ORIENTED_EDGE('',*,*,#480,.T.);
#492=ORIENTED_EDGE('',*,*,#382,.T.);
#493=ORIENTED_EDGE('',*,*,#477,.F.);
#494=EDGE_LOOP('',(#490,#491,#492,#493));
#495=FACE_OUTER_BOUND('',#494,.F.);
#496=ADVANCED_FACE('',(#495),#489,.F.);
#497=CARTESIAN_POINT('',(0.E0,0.E0,0.E0));
#498=DIRECTION('',(0.E0,0.E0,1.E0));
#499=DIRECTION('',(1.E0,0.E0,0.E0));
#500=AXIS2_PLACEMENT_3D('',#497,#498,#499);
#501=CYLINDRICAL_SURFACE('',#500,2.75E0);
#502=ORIENTED_EDGE('',*,*,#288,.F.);
#504=ORIENTED_EDGE('',*,*,#503,.T.);
#505=ORIENTED_EDGE('',*,*,#386,.T.);
#507=ORIENTED_EDGE('',*,*,#506,.F.);
#508=EDGE_LOOP('',(#502,#504,#505,#507));
#509=FACE_OUTER_BOUND('',#508,.F.);
#510=ADVANCED_FACE('',(#509),#501,.F.);
#511=CARTESIAN_POINT('',(0.E0,0.E0,0.E0));
#512=DIRECTION('',(0.E0,0.E0,1.E0));
#513=DIRECTION('',(1.E0,0.E0,0.E0));
#514=AXIS2_PLACEMENT_3D('',#511,#512,#513);
#515=CYLINDRICAL_SURFACE('',#514,2.75E0);
#516=ORIENTED_EDGE('',*,*,#290,.F.);
#517=ORIENTED_EDGE('',*,*,#506,.T.);
#518=ORIENTED_EDGE('',*,*,#388,.T.);
#519=ORIENTED_EDGE('',*,*,#503,.F.);
#520=EDGE_LOOP('',(#516,#517,#518,#519));
#521=FACE_OUTER_BOUND('',#520,.F.);
#522=ADVANCED_FACE('',(#521),#515,.F.);
#523=CLOSED_SHELL('',(#294,#309,#323,#337,#350,#392,#406,#418,#432,#444,#458,
#470,#484,#496,#510,#522));
#524=MANIFOLD_SOLID_BREP('',#523);
#526=DIMENSIONAL_EXPONENTS(0.E0,0.E0,0.E0,0.E0,0.E0,0.E0,0.E0);
#528=PLANE_ANGLE_MEASURE_WITH_UNIT(PLANE_ANGLE_MEASURE(1.745329251994E-2),#527);
#529=(CONVERSION_BASED_UNIT('DEGREE',#528)NAMED_UNIT(*)PLANE_ANGLE_UNIT());
#531=UNCERTAINTY_MEASURE_WITH_UNIT(LENGTH_MEASURE(2.647733115176E-4),#525,
'closure',
'Maximum model space distance between geometric entities at asserted connectivities');
#532=(GEOMETRIC_REPRESENTATION_CONTEXT(3)GLOBAL_UNCERTAINTY_ASSIGNED_CONTEXT((
#531))GLOBAL_UNIT_ASSIGNED_CONTEXT((#525,#529,#530))REPRESENTATION_CONTEXT
('ID1','3'));
#534=APPLICATION_CONTEXT(
'CONFIGURATION CONTROLLED 3D DESIGNS OF MECHANICAL PARTS AND ASSEMBLIES');
#535=APPLICATION_PROTOCOL_DEFINITION('international standard',
'config_control_design',1994,#534);
#536=DESIGN_CONTEXT('',#534,'design');
#537=MECHANICAL_CONTEXT('',#534,'mechanical');
#538=PRODUCT('02405500504','02405500504','NOT SPECIFIED',(#537));
#539=PRODUCT_DEFINITION_FORMATION_WITH_SPECIFIED_SOURCE('1','LAST_VERSION',#538,
.MADE.);
#543=PRODUCT_CATEGORY('part','');
#544=PRODUCT_RELATED_PRODUCT_CATEGORY('detail','',(#538));
#545=PRODUCT_CATEGORY_RELATIONSHIP('','',#543,#544);
#546=SECURITY_CLASSIFICATION_LEVEL('unclassified');
#547=SECURITY_CLASSIFICATION('','',#546);
#548=CC_DESIGN_SECURITY_CLASSIFICATION(#547,(#539));
#549=APPROVAL_STATUS('approved');
#550=APPROVAL(#549,'');
#551=CC_DESIGN_APPROVAL(#550,(#547,#539,#540));
#552=CALENDAR_DATE(120,3,2);
#553=COORDINATED_UNIVERSAL_TIME_OFFSET(1,0,.AHEAD.);
#554=LOCAL_TIME(15,16,4.5E1,#553);
#555=DATE_AND_TIME(#552,#554);
#556=APPROVAL_DATE_TIME(#555,#550);
#557=DATE_TIME_ROLE('creation_date');
#558=CC_DESIGN_DATE_AND_TIME_ASSIGNMENT(#555,#557,(#540));
#559=DATE_TIME_ROLE('classification_date');
#560=CC_DESIGN_DATE_AND_TIME_ASSIGNMENT(#555,#559,(#547));
#561=PERSON('UNSPECIFIED','UNSPECIFIED',$,$,$,$);
#562=ORGANIZATION('UNSPECIFIED','UNSPECIFIED','UNSPECIFIED');
#563=PERSON_AND_ORGANIZATION(#561,#562);
#564=APPROVAL_ROLE('approver');
#565=APPROVAL_PERSON_ORGANIZATION(#563,#550,#564);
#566=PERSON_AND_ORGANIZATION_ROLE('creator');
#567=CC_DESIGN_PERSON_AND_ORGANIZATION_ASSIGNMENT(#563,#566,(#539,#540));
#568=PERSON_AND_ORGANIZATION_ROLE('design_supplier');
#569=CC_DESIGN_PERSON_AND_ORGANIZATION_ASSIGNMENT(#563,#568,(#539));
#570=PERSON_AND_ORGANIZATION_ROLE('classification_officer');
#571=CC_DESIGN_PERSON_AND_ORGANIZATION_ASSIGNMENT(#563,#570,(#547));
#572=PERSON_AND_ORGANIZATION_ROLE('design_owner');
#573=CC_DESIGN_PERSON_AND_ORGANIZATION_ASSIGNMENT(#563,#572,(#538));
#5=CIRCLE('',#4,1.4E1);
#10=CIRCLE('',#9,1.4E1);
#15=CIRCLE('',#14,2.75E0);
#20=CIRCLE('',#19,2.75E0);
#25=CIRCLE('',#24,2.75E0);
#30=CIRCLE('',#29,2.75E0);
#35=CIRCLE('',#34,2.75E0);
#40=CIRCLE('',#39,2.75E0);
#45=CIRCLE('',#44,2.75E0);
#50=CIRCLE('',#49,2.75E0);
#55=CIRCLE('',#54,2.75E0);
#60=CIRCLE('',#59,2.75E0);
#97=CIRCLE('',#96,1.4E1);
#102=CIRCLE('',#101,1.4E1);
#107=CIRCLE('',#106,2.75E0);
#112=CIRCLE('',#111,2.75E0);
#117=CIRCLE('',#116,2.75E0);
#122=CIRCLE('',#121,2.75E0);
#127=CIRCLE('',#126,2.75E0);
#132=CIRCLE('',#131,2.75E0);
#137=CIRCLE('',#136,2.75E0);
#142=CIRCLE('',#141,2.75E0);
#147=CIRCLE('',#146,2.75E0);
#152=CIRCLE('',#151,2.75E0);
#254=EDGE_CURVE('',#211,#212,#5,.T.);
#256=EDGE_CURVE('',#219,#212,#92,.T.);
#258=EDGE_CURVE('',#219,#220,#10,.T.);
#260=EDGE_CURVE('',#211,#220,#68,.T.);
#264=EDGE_CURVE('',#243,#244,#15,.T.);
#266=EDGE_CURVE('',#244,#243,#20,.T.);
#270=EDGE_CURVE('',#235,#236,#25,.T.);
#272=EDGE_CURVE('',#236,#235,#30,.T.);
#276=EDGE_CURVE('',#227,#228,#35,.T.);
#278=EDGE_CURVE('',#228,#227,#40,.T.);
#282=EDGE_CURVE('',#203,#204,#45,.T.);
#284=EDGE_CURVE('',#204,#203,#50,.T.);
#288=EDGE_CURVE('',#195,#196,#55,.T.);
#290=EDGE_CURVE('',#196,#195,#60,.T.);
#301=EDGE_CURVE('',#211,#215,#64,.T.);
#303=EDGE_CURVE('',#215,#216,#97,.T.);
#305=EDGE_CURVE('',#212,#216,#80,.T.);
#317=EDGE_CURVE('',#220,#224,#72,.T.);
#319=EDGE_CURVE('',#224,#215,#76,.T.);
#330=EDGE_CURVE('',#219,#223,#88,.T.);
#332=EDGE_CURVE('',#223,#224,#102,.T.);
#344=EDGE_CURVE('',#216,#223,#84,.T.);
#362=EDGE_CURVE('',#247,#248,#107,.T.);
#364=EDGE_CURVE('',#248,#247,#112,.T.);
#368=EDGE_CURVE('',#239,#240,#117,.T.);
#370=EDGE_CURVE('',#240,#239,#122,.T.);
#374=EDGE_CURVE('',#231,#232,#127,.T.);
#376=EDGE_CURVE('',#232,#231,#132,.T.);
#380=EDGE_CURVE('',#207,#208,#137,.T.);
#382=EDGE_CURVE('',#208,#207,#142,.T.);
#386=EDGE_CURVE('',#199,#200,#147,.T.);
#388=EDGE_CURVE('',#200,#199,#152,.T.);
#399=EDGE_CURVE('',#243,#247,#156,.T.);
#402=EDGE_CURVE('',#244,#248,#160,.T.);
#425=EDGE_CURVE('',#235,#239,#164,.T.);
#428=EDGE_CURVE('',#236,#240,#168,.T.);
#451=EDGE_CURVE('',#227,#231,#172,.T.);
#454=EDGE_CURVE('',#228,#232,#176,.T.);
#477=EDGE_CURVE('',#203,#207,#180,.T.);
#480=EDGE_CURVE('',#204,#208,#184,.T.);
#503=EDGE_CURVE('',#195,#199,#188,.T.);
#506=EDGE_CURVE('',#196,#200,#192,.T.);
#525=(LENGTH_UNIT()NAMED_UNIT(*)SI_UNIT(.MILLI.,.METRE.));
#527=(NAMED_UNIT(*)PLANE_ANGLE_UNIT()SI_UNIT($,.RADIAN.));
#530=(NAMED_UNIT(*)SI_UNIT($,.STERADIAN.)SOLID_ANGLE_UNIT());
#533=ADVANCED_BREP_SHAPE_REPRESENTATION('',(#524),#532);
#540=PRODUCT_DEFINITION('design','',#539,#536);
#541=PRODUCT_DEFINITION_SHAPE('','SHAPE FOR 02405500504.',#540);
#542=SHAPE_DEFINITION_REPRESENTATION(#541,#533);
ENDSEC;
END-ISO-10303-21;
