ISO-10303-21;
HEADER;
FILE_DESCRIPTION((''),'2;1');
FILE_NAME('001109_200_42','2020-01-31T',('presta_be4'),(''),
'CREO PARAMETRIC BY PTC INC, 2018360','CREO PARAMETRIC BY PTC INC, 2018360','');
FILE_SCHEMA(('CONFIG_CONTROL_DESIGN'));
ENDSEC;
DATA;
#2=DIRECTION('',(-7.071067811865E-1,7.071067811865E-1,0.E0));
#3=VECTOR('',#2,3.535533905933E-1);
#4=CARTESIAN_POINT('',(3.175E0,9.25E-1,0.E0));
#5=LINE('',#4,#3);
#6=DIRECTION('',(-7.071067811865E-1,-7.071067811865E-1,0.E0));
#7=VECTOR('',#6,3.535533905933E-1);
#8=CARTESIAN_POINT('',(3.175E0,-9.25E-1,0.E0));
#9=LINE('',#8,#7);
#10=CARTESIAN_POINT('',(3.175E0,0.E0,0.E0));
#11=DIRECTION('',(-1.E0,0.E0,0.E0));
#12=DIRECTION('',(0.E0,1.E0,0.E0));
#13=AXIS2_PLACEMENT_3D('',#10,#11,#12);
#15=CARTESIAN_POINT('',(3.175E0,0.E0,0.E0));
#16=DIRECTION('',(1.E0,0.E0,0.E0));
#17=DIRECTION('',(0.E0,1.E0,0.E0));
#18=AXIS2_PLACEMENT_3D('',#15,#16,#17);
#20=CARTESIAN_POINT('',(2.925E0,0.E0,0.E0));
#21=DIRECTION('',(1.E0,0.E0,0.E0));
#22=DIRECTION('',(0.E0,1.E0,0.E0));
#23=AXIS2_PLACEMENT_3D('',#20,#21,#22);
#25=DIRECTION('',(-1.E0,0.E0,0.E0));
#26=VECTOR('',#25,2.925E0);
#27=CARTESIAN_POINT('',(2.925E0,1.175E0,0.E0));
#28=LINE('',#27,#26);
#29=DIRECTION('',(-1.E0,0.E0,0.E0));
#30=VECTOR('',#29,2.925E0);
#31=CARTESIAN_POINT('',(2.925E0,-1.175E0,0.E0));
#32=LINE('',#31,#30);
#33=CARTESIAN_POINT('',(2.925E0,0.E0,0.E0));
#34=DIRECTION('',(-1.E0,0.E0,0.E0));
#35=DIRECTION('',(0.E0,1.E0,0.E0));
#36=AXIS2_PLACEMENT_3D('',#33,#34,#35);
#38=CARTESIAN_POINT('',(0.E0,0.E0,0.E0));
#39=DIRECTION('',(1.E0,0.E0,0.E0));
#40=DIRECTION('',(0.E0,1.E0,0.E0));
#41=AXIS2_PLACEMENT_3D('',#38,#39,#40);
#43=CARTESIAN_POINT('',(0.E0,0.E0,0.E0));
#44=DIRECTION('',(-1.E0,0.E0,0.E0));
#45=DIRECTION('',(0.E0,1.E0,0.E0));
#46=AXIS2_PLACEMENT_3D('',#43,#44,#45);
#48=DIRECTION('',(-1.E0,0.E0,0.E0));
#49=VECTOR('',#48,1.09E1);
#50=CARTESIAN_POINT('',(0.E0,6.975E-1,0.E0));
#51=LINE('',#50,#49);
#52=DIRECTION('',(-1.E0,0.E0,0.E0));
#53=VECTOR('',#52,1.09E1);
#54=CARTESIAN_POINT('',(0.E0,-6.975E-1,0.E0));
#55=LINE('',#54,#53);
#56=CARTESIAN_POINT('',(0.E0,0.E0,0.E0));
#57=DIRECTION('',(-1.E0,0.E0,0.E0));
#58=DIRECTION('',(0.E0,1.E0,0.E0));
#59=AXIS2_PLACEMENT_3D('',#56,#57,#58);
#61=CARTESIAN_POINT('',(0.E0,0.E0,0.E0));
#62=DIRECTION('',(1.E0,0.E0,0.E0));
#63=DIRECTION('',(0.E0,1.E0,0.E0));
#64=AXIS2_PLACEMENT_3D('',#61,#62,#63);
#66=CARTESIAN_POINT('',(-1.09E1,0.E0,0.E0));
#67=DIRECTION('',(1.E0,0.E0,0.E0));
#68=DIRECTION('',(0.E0,1.E0,0.E0));
#69=AXIS2_PLACEMENT_3D('',#66,#67,#68);
#71=DIRECTION('',(-7.071067811865E-1,-7.071067811865E-1,0.E0));
#72=VECTOR('',#71,3.535533905933E-1);
#73=CARTESIAN_POINT('',(-1.09E1,6.975E-1,0.E0));
#74=LINE('',#73,#72);
#75=DIRECTION('',(-7.071067811865E-1,7.071067811865E-1,0.E0));
#76=VECTOR('',#75,3.535533905933E-1);
#77=CARTESIAN_POINT('',(-1.09E1,-6.975E-1,0.E0));
#78=LINE('',#77,#76);
#79=CARTESIAN_POINT('',(-1.09E1,0.E0,0.E0));
#80=DIRECTION('',(-1.E0,0.E0,0.E0));
#81=DIRECTION('',(0.E0,1.E0,0.E0));
#82=AXIS2_PLACEMENT_3D('',#79,#80,#81);
#84=CARTESIAN_POINT('',(-1.115E1,0.E0,0.E0));
#85=DIRECTION('',(-1.E0,0.E0,0.E0));
#86=DIRECTION('',(0.E0,1.E0,0.E0));
#87=AXIS2_PLACEMENT_3D('',#84,#85,#86);
#89=CARTESIAN_POINT('',(-1.115E1,0.E0,0.E0));
#90=DIRECTION('',(1.E0,0.E0,0.E0));
#91=DIRECTION('',(0.E0,1.E0,0.E0));
#92=AXIS2_PLACEMENT_3D('',#89,#90,#91);
#94=CARTESIAN_POINT('',(3.175E0,9.25E-1,0.E0));
#95=CARTESIAN_POINT('',(2.925E0,1.175E0,0.E0));
#96=VERTEX_POINT('',#94);
#97=VERTEX_POINT('',#95);
#98=CARTESIAN_POINT('',(0.E0,1.175E0,0.E0));
#99=VERTEX_POINT('',#98);
#100=CARTESIAN_POINT('',(0.E0,6.975E-1,0.E0));
#101=CARTESIAN_POINT('',(-1.09E1,6.975E-1,0.E0));
#102=VERTEX_POINT('',#100);
#103=VERTEX_POINT('',#101);
#104=CARTESIAN_POINT('',(-1.115E1,4.475E-1,0.E0));
#105=VERTEX_POINT('',#104);
#106=CARTESIAN_POINT('',(3.175E0,-9.25E-1,0.E0));
#107=CARTESIAN_POINT('',(2.925E0,-1.175E0,0.E0));
#108=VERTEX_POINT('',#106);
#109=VERTEX_POINT('',#107);
#110=CARTESIAN_POINT('',(0.E0,-1.175E0,0.E0));
#111=VERTEX_POINT('',#110);
#112=CARTESIAN_POINT('',(0.E0,-6.975E-1,0.E0));
#113=CARTESIAN_POINT('',(-1.09E1,-6.975E-1,0.E0));
#114=VERTEX_POINT('',#112);
#115=VERTEX_POINT('',#113);
#116=CARTESIAN_POINT('',(-1.115E1,-4.475E-1,0.E0));
#117=VERTEX_POINT('',#116);
#118=CARTESIAN_POINT('',(3.175E0,0.E0,0.E0));
#119=DIRECTION('',(1.E0,0.E0,0.E0));
#120=DIRECTION('',(0.E0,-1.E0,0.E0));
#121=AXIS2_PLACEMENT_3D('',#118,#119,#120);
#122=PLANE('',#121);
#124=ORIENTED_EDGE('',*,*,#123,.T.);
#126=ORIENTED_EDGE('',*,*,#125,.F.);
#127=EDGE_LOOP('',(#124,#126));
#128=FACE_OUTER_BOUND('',#127,.F.);
#129=ADVANCED_FACE('',(#128),#122,.T.);
#130=CARTESIAN_POINT('',(3.05E0,0.E0,0.E0));
#131=DIRECTION('',(-1.E0,0.E0,0.E0));
#132=DIRECTION('',(0.E0,1.E0,0.E0));
#133=AXIS2_PLACEMENT_3D('',#130,#131,#132);
#134=CONICAL_SURFACE('',#133,1.05E0,4.5E1);
#136=ORIENTED_EDGE('',*,*,#135,.T.);
#138=ORIENTED_EDGE('',*,*,#137,.T.);
#140=ORIENTED_EDGE('',*,*,#139,.F.);
#141=ORIENTED_EDGE('',*,*,#123,.F.);
#142=EDGE_LOOP('',(#136,#138,#140,#141));
#143=FACE_OUTER_BOUND('',#142,.F.);
#144=ADVANCED_FACE('',(#143),#134,.T.);
#145=CARTESIAN_POINT('',(3.05E0,0.E0,0.E0));
#146=DIRECTION('',(-1.E0,0.E0,0.E0));
#147=DIRECTION('',(0.E0,1.E0,0.E0));
#148=AXIS2_PLACEMENT_3D('',#145,#146,#147);
#149=CONICAL_SURFACE('',#148,1.05E0,4.5E1);
#150=ORIENTED_EDGE('',*,*,#135,.F.);
#151=ORIENTED_EDGE('',*,*,#125,.T.);
#152=ORIENTED_EDGE('',*,*,#139,.T.);
#154=ORIENTED_EDGE('',*,*,#153,.F.);
#155=EDGE_LOOP('',(#150,#151,#152,#154));
#156=FACE_OUTER_BOUND('',#155,.F.);
#157=ADVANCED_FACE('',(#156),#149,.T.);
#158=CARTESIAN_POINT('',(-1.186625E1,0.E0,0.E0));
#159=DIRECTION('',(1.E0,0.E0,0.E0));
#160=DIRECTION('',(0.E0,-1.E0,0.E0));
#161=AXIS2_PLACEMENT_3D('',#158,#159,#160);
#162=CYLINDRICAL_SURFACE('',#161,1.175E0);
#164=ORIENTED_EDGE('',*,*,#163,.F.);
#165=ORIENTED_EDGE('',*,*,#153,.T.);
#167=ORIENTED_EDGE('',*,*,#166,.T.);
#169=ORIENTED_EDGE('',*,*,#168,.F.);
#170=EDGE_LOOP('',(#164,#165,#167,#169));
#171=FACE_OUTER_BOUND('',#170,.F.);
#172=ADVANCED_FACE('',(#171),#162,.T.);
#173=CARTESIAN_POINT('',(-1.186625E1,0.E0,0.E0));
#174=DIRECTION('',(1.E0,0.E0,0.E0));
#175=DIRECTION('',(0.E0,-1.E0,0.E0));
#176=AXIS2_PLACEMENT_3D('',#173,#174,#175);
#177=CYLINDRICAL_SURFACE('',#176,1.175E0);
#178=ORIENTED_EDGE('',*,*,#163,.T.);
#180=ORIENTED_EDGE('',*,*,#179,.T.);
#181=ORIENTED_EDGE('',*,*,#166,.F.);
#182=ORIENTED_EDGE('',*,*,#137,.F.);
#183=EDGE_LOOP('',(#178,#180,#181,#182));
#184=FACE_OUTER_BOUND('',#183,.F.);
#185=ADVANCED_FACE('',(#184),#177,.T.);
#186=CARTESIAN_POINT('',(0.E0,0.E0,0.E0));
#187=DIRECTION('',(1.E0,0.E0,0.E0));
#188=DIRECTION('',(0.E0,-1.E0,0.E0));
#189=AXIS2_PLACEMENT_3D('',#186,#187,#188);
#190=PLANE('',#189);
#191=ORIENTED_EDGE('',*,*,#168,.T.);
#192=ORIENTED_EDGE('',*,*,#179,.F.);
#193=EDGE_LOOP('',(#191,#192));
#194=FACE_OUTER_BOUND('',#193,.F.);
#196=ORIENTED_EDGE('',*,*,#195,.T.);
#198=ORIENTED_EDGE('',*,*,#197,.F.);
#199=EDGE_LOOP('',(#196,#198));
#200=FACE_BOUND('',#199,.F.);
#201=ADVANCED_FACE('',(#194,#200),#190,.F.);
#202=CARTESIAN_POINT('',(-1.186625E1,0.E0,0.E0));
#203=DIRECTION('',(1.E0,0.E0,0.E0));
#204=DIRECTION('',(0.E0,-1.E0,0.E0));
#205=AXIS2_PLACEMENT_3D('',#202,#203,#204);
#206=CYLINDRICAL_SURFACE('',#205,6.975E-1);
#208=ORIENTED_EDGE('',*,*,#207,.T.);
#210=ORIENTED_EDGE('',*,*,#209,.T.);
#212=ORIENTED_EDGE('',*,*,#211,.F.);
#213=ORIENTED_EDGE('',*,*,#195,.F.);
#214=EDGE_LOOP('',(#208,#210,#212,#213));
#215=FACE_OUTER_BOUND('',#214,.F.);
#216=ADVANCED_FACE('',(#215),#206,.T.);
#217=CARTESIAN_POINT('',(-1.186625E1,0.E0,0.E0));
#218=DIRECTION('',(1.E0,0.E0,0.E0));
#219=DIRECTION('',(0.E0,-1.E0,0.E0));
#220=AXIS2_PLACEMENT_3D('',#217,#218,#219);
#221=CYLINDRICAL_SURFACE('',#220,6.975E-1);
#222=ORIENTED_EDGE('',*,*,#207,.F.);
#223=ORIENTED_EDGE('',*,*,#197,.T.);
#224=ORIENTED_EDGE('',*,*,#211,.T.);
#226=ORIENTED_EDGE('',*,*,#225,.F.);
#227=EDGE_LOOP('',(#222,#223,#224,#226));
#228=FACE_OUTER_BOUND('',#227,.F.);
#229=ADVANCED_FACE('',(#228),#221,.T.);
#230=CARTESIAN_POINT('',(-1.1025E1,0.E0,0.E0));
#231=DIRECTION('',(1.E0,0.E0,0.E0));
#232=DIRECTION('',(0.E0,-1.E0,0.E0));
#233=AXIS2_PLACEMENT_3D('',#230,#231,#232);
#234=CONICAL_SURFACE('',#233,5.725E-1,4.5E1);
#236=ORIENTED_EDGE('',*,*,#235,.F.);
#237=ORIENTED_EDGE('',*,*,#225,.T.);
#239=ORIENTED_EDGE('',*,*,#238,.T.);
#241=ORIENTED_EDGE('',*,*,#240,.F.);
#242=EDGE_LOOP('',(#236,#237,#239,#241));
#243=FACE_OUTER_BOUND('',#242,.F.);
#244=ADVANCED_FACE('',(#243),#234,.T.);
#245=CARTESIAN_POINT('',(-1.1025E1,0.E0,0.E0));
#246=DIRECTION('',(1.E0,0.E0,0.E0));
#247=DIRECTION('',(0.E0,-1.E0,0.E0));
#248=AXIS2_PLACEMENT_3D('',#245,#246,#247);
#249=CONICAL_SURFACE('',#248,5.725E-1,4.5E1);
#250=ORIENTED_EDGE('',*,*,#235,.T.);
#252=ORIENTED_EDGE('',*,*,#251,.T.);
#253=ORIENTED_EDGE('',*,*,#238,.F.);
#254=ORIENTED_EDGE('',*,*,#209,.F.);
#255=EDGE_LOOP('',(#250,#252,#253,#254));
#256=FACE_OUTER_BOUND('',#255,.F.);
#257=ADVANCED_FACE('',(#256),#249,.T.);
#258=CARTESIAN_POINT('',(-1.115E1,0.E0,0.E0));
#259=DIRECTION('',(1.E0,0.E0,0.E0));
#260=DIRECTION('',(0.E0,-1.E0,0.E0));
#261=AXIS2_PLACEMENT_3D('',#258,#259,#260);
#262=PLANE('',#261);
#263=ORIENTED_EDGE('',*,*,#251,.F.);
#264=ORIENTED_EDGE('',*,*,#240,.T.);
#265=EDGE_LOOP('',(#263,#264));
#266=FACE_OUTER_BOUND('',#265,.F.);
#267=ADVANCED_FACE('',(#266),#262,.F.);
#268=CLOSED_SHELL('',(#129,#144,#157,#172,#185,#201,#216,#229,#244,#257,#267));
#269=MANIFOLD_SOLID_BREP('',#268);
#271=DIMENSIONAL_EXPONENTS(0.E0,0.E0,0.E0,0.E0,0.E0,0.E0,0.E0);
#273=PLANE_ANGLE_MEASURE_WITH_UNIT(PLANE_ANGLE_MEASURE(1.745329251994E-2),#272);
#274=(CONVERSION_BASED_UNIT('DEGREE',#273)NAMED_UNIT(*)PLANE_ANGLE_UNIT());
#276=UNCERTAINTY_MEASURE_WITH_UNIT(LENGTH_MEASURE(1.580061572519E-3),#270,
'closure',
'Maximum model space distance between geometric entities at asserted connectivities');
#277=(GEOMETRIC_REPRESENTATION_CONTEXT(3)GLOBAL_UNCERTAINTY_ASSIGNED_CONTEXT((
#276))GLOBAL_UNIT_ASSIGNED_CONTEXT((#270,#274,#275))REPRESENTATION_CONTEXT
('ID1','3'));
#279=APPLICATION_CONTEXT(
'CONFIGURATION CONTROLLED 3D DESIGNS OF MECHANICAL PARTS AND ASSEMBLIES');
#280=APPLICATION_PROTOCOL_DEFINITION('international standard',
'config_control_design',1994,#279);
#281=DESIGN_CONTEXT('',#279,'design');
#282=MECHANICAL_CONTEXT('',#279,'mechanical');
#283=PRODUCT('001109_200_42','001109_200_42','NOT SPECIFIED',(#282));
#284=PRODUCT_DEFINITION_FORMATION_WITH_SPECIFIED_SOURCE('1','LAST_VERSION',#283,
.MADE.);
#288=PRODUCT_CATEGORY('part','');
#289=PRODUCT_RELATED_PRODUCT_CATEGORY('detail','',(#283));
#290=PRODUCT_CATEGORY_RELATIONSHIP('','',#288,#289);
#291=SECURITY_CLASSIFICATION_LEVEL('unclassified');
#292=SECURITY_CLASSIFICATION('','',#291);
#293=CC_DESIGN_SECURITY_CLASSIFICATION(#292,(#284));
#294=APPROVAL_STATUS('approved');
#295=APPROVAL(#294,'');
#296=CC_DESIGN_APPROVAL(#295,(#292,#284,#285));
#297=CALENDAR_DATE(120,31,1);
#298=COORDINATED_UNIVERSAL_TIME_OFFSET(1,0,.AHEAD.);
#299=LOCAL_TIME(10,49,4.E1,#298);
#300=DATE_AND_TIME(#297,#299);
#301=APPROVAL_DATE_TIME(#300,#295);
#302=DATE_TIME_ROLE('creation_date');
#303=CC_DESIGN_DATE_AND_TIME_ASSIGNMENT(#300,#302,(#285));
#304=DATE_TIME_ROLE('classification_date');
#305=CC_DESIGN_DATE_AND_TIME_ASSIGNMENT(#300,#304,(#292));
#306=PERSON('UNSPECIFIED','UNSPECIFIED',$,$,$,$);
#307=ORGANIZATION('UNSPECIFIED','UNSPECIFIED','UNSPECIFIED');
#308=PERSON_AND_ORGANIZATION(#306,#307);
#309=APPROVAL_ROLE('approver');
#310=APPROVAL_PERSON_ORGANIZATION(#308,#295,#309);
#311=PERSON_AND_ORGANIZATION_ROLE('creator');
#312=CC_DESIGN_PERSON_AND_ORGANIZATION_ASSIGNMENT(#308,#311,(#284,#285));
#313=PERSON_AND_ORGANIZATION_ROLE('design_supplier');
#314=CC_DESIGN_PERSON_AND_ORGANIZATION_ASSIGNMENT(#308,#313,(#284));
#315=PERSON_AND_ORGANIZATION_ROLE('classification_officer');
#316=CC_DESIGN_PERSON_AND_ORGANIZATION_ASSIGNMENT(#308,#315,(#292));
#317=PERSON_AND_ORGANIZATION_ROLE('design_owner');
#318=CC_DESIGN_PERSON_AND_ORGANIZATION_ASSIGNMENT(#308,#317,(#283));
#14=CIRCLE('',#13,9.25E-1);
#19=CIRCLE('',#18,9.25E-1);
#24=CIRCLE('',#23,1.175E0);
#37=CIRCLE('',#36,1.175E0);
#42=CIRCLE('',#41,1.175E0);
#47=CIRCLE('',#46,1.175E0);
#60=CIRCLE('',#59,6.975E-1);
#65=CIRCLE('',#64,6.975E-1);
#70=CIRCLE('',#69,6.975E-1);
#83=CIRCLE('',#82,6.975E-1);
#88=CIRCLE('',#87,4.475E-1);
#93=CIRCLE('',#92,4.475E-1);
#123=EDGE_CURVE('',#96,#108,#14,.T.);
#125=EDGE_CURVE('',#96,#108,#19,.T.);
#135=EDGE_CURVE('',#96,#97,#5,.T.);
#137=EDGE_CURVE('',#97,#109,#37,.T.);
#139=EDGE_CURVE('',#108,#109,#9,.T.);
#153=EDGE_CURVE('',#97,#109,#24,.T.);
#163=EDGE_CURVE('',#97,#99,#28,.T.);
#166=EDGE_CURVE('',#109,#111,#32,.T.);
#168=EDGE_CURVE('',#99,#111,#42,.T.);
#179=EDGE_CURVE('',#99,#111,#47,.T.);
#195=EDGE_CURVE('',#102,#114,#60,.T.);
#197=EDGE_CURVE('',#102,#114,#65,.T.);
#207=EDGE_CURVE('',#102,#103,#51,.T.);
#209=EDGE_CURVE('',#103,#115,#83,.T.);
#211=EDGE_CURVE('',#114,#115,#55,.T.);
#225=EDGE_CURVE('',#103,#115,#70,.T.);
#235=EDGE_CURVE('',#103,#105,#74,.T.);
#238=EDGE_CURVE('',#115,#117,#78,.T.);
#240=EDGE_CURVE('',#105,#117,#93,.T.);
#251=EDGE_CURVE('',#105,#117,#88,.T.);
#270=(LENGTH_UNIT()NAMED_UNIT(*)SI_UNIT(.MILLI.,.METRE.));
#272=(NAMED_UNIT(*)PLANE_ANGLE_UNIT()SI_UNIT($,.RADIAN.));
#275=(NAMED_UNIT(*)SI_UNIT($,.STERADIAN.)SOLID_ANGLE_UNIT());
#278=ADVANCED_BREP_SHAPE_REPRESENTATION('',(#269),#277);
#285=PRODUCT_DEFINITION('design','',#284,#281);
#286=PRODUCT_DEFINITION_SHAPE('','SHAPE FOR 001109_200_42.',#285);
#287=SHAPE_DEFINITION_REPRESENTATION(#286,#278);
ENDSEC;
END-ISO-10303-21;
