ISO-10303-21;
HEADER;
FILE_DESCRIPTION((''),'2;1');
FILE_NAME('001714_500_02','2020-01-31T',('presta_be4'),(''),
'CREO PARAMETRIC BY PTC INC, 2018360','CREO PARAMETRIC BY PTC INC, 2018360','');
FILE_SCHEMA(('CONFIG_CONTROL_DESIGN'));
ENDSEC;
DATA;
#2=CARTESIAN_POINT('',(0.E0,6.86E0,0.E0));
#3=DIRECTION('',(0.E0,1.E0,0.E0));
#4=DIRECTION('',(-1.E0,0.E0,0.E0));
#5=AXIS2_PLACEMENT_3D('',#2,#3,#4);
#7=DIRECTION('',(0.E0,-1.E0,0.E0));
#8=VECTOR('',#7,5.26E0);
#9=CARTESIAN_POINT('',(-1.08E0,6.86E0,0.E0));
#10=LINE('',#9,#8);
#11=DIRECTION('',(0.E0,-1.E0,0.E0));
#12=VECTOR('',#11,5.26E0);
#13=CARTESIAN_POINT('',(1.08E0,6.86E0,0.E0));
#14=LINE('',#13,#12);
#15=CARTESIAN_POINT('',(0.E0,6.86E0,0.E0));
#16=DIRECTION('',(0.E0,-1.E0,0.E0));
#17=DIRECTION('',(-1.E0,0.E0,0.E0));
#18=AXIS2_PLACEMENT_3D('',#15,#16,#17);
#20=DIRECTION('',(-7.071067811866E-1,-7.071067811865E-1,0.E0));
#21=VECTOR('',#20,4.101219330882E-1);
#22=CARTESIAN_POINT('',(-1.08E0,1.6E0,0.E0));
#23=LINE('',#22,#21);
#24=DIRECTION('',(7.071067811866E-1,-7.071067811865E-1,0.E0));
#25=VECTOR('',#24,4.101219330882E-1);
#26=CARTESIAN_POINT('',(1.08E0,1.6E0,0.E0));
#27=LINE('',#26,#25);
#28=CARTESIAN_POINT('',(0.E0,1.6E0,0.E0));
#29=DIRECTION('',(0.E0,-1.E0,0.E0));
#30=DIRECTION('',(-1.E0,0.E0,0.E0));
#31=AXIS2_PLACEMENT_3D('',#28,#29,#30);
#33=CARTESIAN_POINT('',(0.E0,1.6E0,0.E0));
#34=DIRECTION('',(0.E0,1.E0,0.E0));
#35=DIRECTION('',(-1.E0,0.E0,0.E0));
#36=AXIS2_PLACEMENT_3D('',#33,#34,#35);
#38=CARTESIAN_POINT('',(0.E0,1.31E0,0.E0));
#39=DIRECTION('',(0.E0,1.E0,0.E0));
#40=DIRECTION('',(-1.E0,0.E0,0.E0));
#41=AXIS2_PLACEMENT_3D('',#38,#39,#40);
#43=DIRECTION('',(0.E0,-1.E0,0.E0));
#44=VECTOR('',#43,1.31E0);
#45=CARTESIAN_POINT('',(-1.37E0,1.31E0,0.E0));
#46=LINE('',#45,#44);
#47=DIRECTION('',(0.E0,-1.E0,0.E0));
#48=VECTOR('',#47,1.31E0);
#49=CARTESIAN_POINT('',(1.37E0,1.31E0,0.E0));
#50=LINE('',#49,#48);
#51=CARTESIAN_POINT('',(0.E0,1.31E0,0.E0));
#52=DIRECTION('',(0.E0,-1.E0,0.E0));
#53=DIRECTION('',(-1.E0,0.E0,0.E0));
#54=AXIS2_PLACEMENT_3D('',#51,#52,#53);
#56=CARTESIAN_POINT('',(0.E0,0.E0,0.E0));
#57=DIRECTION('',(0.E0,-1.E0,0.E0));
#58=DIRECTION('',(-1.E0,0.E0,0.E0));
#59=AXIS2_PLACEMENT_3D('',#56,#57,#58);
#61=CARTESIAN_POINT('',(0.E0,0.E0,0.E0));
#62=DIRECTION('',(0.E0,1.E0,0.E0));
#63=DIRECTION('',(-1.E0,0.E0,0.E0));
#64=AXIS2_PLACEMENT_3D('',#61,#62,#63);
#66=CARTESIAN_POINT('',(0.E0,0.E0,0.E0));
#67=DIRECTION('',(0.E0,1.E0,0.E0));
#68=DIRECTION('',(-1.E0,0.E0,0.E0));
#69=AXIS2_PLACEMENT_3D('',#66,#67,#68);
#71=DIRECTION('',(0.E0,-1.E0,0.E0));
#72=VECTOR('',#71,7.4E-1);
#73=CARTESIAN_POINT('',(-1.65E0,0.E0,0.E0));
#74=LINE('',#73,#72);
#75=DIRECTION('',(0.E0,-1.E0,0.E0));
#76=VECTOR('',#75,7.4E-1);
#77=CARTESIAN_POINT('',(1.65E0,0.E0,0.E0));
#78=LINE('',#77,#76);
#79=CARTESIAN_POINT('',(0.E0,0.E0,0.E0));
#80=DIRECTION('',(0.E0,-1.E0,0.E0));
#81=DIRECTION('',(-1.E0,0.E0,0.E0));
#82=AXIS2_PLACEMENT_3D('',#79,#80,#81);
#84=CARTESIAN_POINT('',(0.E0,-7.4E-1,0.E0));
#85=DIRECTION('',(0.E0,-1.E0,0.E0));
#86=DIRECTION('',(-1.E0,0.E0,0.E0));
#87=AXIS2_PLACEMENT_3D('',#84,#85,#86);
#89=CARTESIAN_POINT('',(0.E0,-7.4E-1,0.E0));
#90=DIRECTION('',(0.E0,1.E0,0.E0));
#91=DIRECTION('',(-1.E0,0.E0,0.E0));
#92=AXIS2_PLACEMENT_3D('',#89,#90,#91);
#94=CARTESIAN_POINT('',(0.E0,-7.4E-1,0.E0));
#95=DIRECTION('',(0.E0,1.E0,0.E0));
#96=DIRECTION('',(-1.E0,0.E0,0.E0));
#97=AXIS2_PLACEMENT_3D('',#94,#95,#96);
#99=CARTESIAN_POINT('',(0.E0,-7.49E0,0.E0));
#100=DIRECTION('',(0.E0,-1.E0,0.E0));
#101=DIRECTION('',(1.E0,0.E0,0.E0));
#102=AXIS2_PLACEMENT_3D('',#99,#100,#101);
#104=CARTESIAN_POINT('',(0.E0,-7.11E0,0.E0));
#105=DIRECTION('',(0.E0,-1.E0,0.E0));
#106=DIRECTION('',(1.E0,0.E0,0.E0));
#107=AXIS2_PLACEMENT_3D('',#104,#105,#106);
#109=CARTESIAN_POINT('',(4.25E-1,-7.11E0,0.E0));
#110=DIRECTION('',(0.E0,0.E0,1.E0));
#111=DIRECTION('',(0.E0,-1.E0,0.E0));
#112=AXIS2_PLACEMENT_3D('',#109,#110,#111);
#114=CARTESIAN_POINT('',(0.E0,-7.49E0,0.E0));
#115=DIRECTION('',(0.E0,1.E0,0.E0));
#116=DIRECTION('',(-1.E0,0.E0,0.E0));
#117=AXIS2_PLACEMENT_3D('',#114,#115,#116);
#119=CARTESIAN_POINT('',(0.E0,-7.49E0,0.E0));
#120=DIRECTION('',(0.E0,1.E0,0.E0));
#121=DIRECTION('',(1.E0,0.E0,0.E0));
#122=AXIS2_PLACEMENT_3D('',#119,#120,#121);
#124=CARTESIAN_POINT('',(0.E0,-7.49E0,0.E0));
#125=DIRECTION('',(0.E0,-1.E0,0.E0));
#126=DIRECTION('',(-1.E0,0.E0,0.E0));
#127=AXIS2_PLACEMENT_3D('',#124,#125,#126);
#129=CARTESIAN_POINT('',(0.E0,-7.11E0,0.E0));
#130=DIRECTION('',(0.E0,-1.E0,0.E0));
#131=DIRECTION('',(-1.E0,0.E0,0.E0));
#132=AXIS2_PLACEMENT_3D('',#129,#130,#131);
#134=CARTESIAN_POINT('',(-4.25E-1,-7.11E0,0.E0));
#135=DIRECTION('',(0.E0,0.E0,-1.E0));
#136=DIRECTION('',(0.E0,-1.E0,0.E0));
#137=AXIS2_PLACEMENT_3D('',#134,#135,#136);
#139=DIRECTION('',(0.E0,-1.E0,-5.436523013989E-11));
#140=VECTOR('',#139,6.37E0);
#141=CARTESIAN_POINT('',(8.05E-1,-7.4E-1,0.E0));
#142=LINE('',#141,#140);
#143=CARTESIAN_POINT('',(0.E0,-7.4E-1,0.E0));
#144=DIRECTION('',(0.E0,-1.E0,0.E0));
#145=DIRECTION('',(-1.E0,0.E0,0.E0));
#146=AXIS2_PLACEMENT_3D('',#143,#144,#145);
#148=DIRECTION('',(0.E0,-1.E0,5.436516989911E-11));
#149=VECTOR('',#148,6.37E0);
#150=CARTESIAN_POINT('',(-8.05E-1,-7.4E-1,0.E0));
#151=LINE('',#150,#149);
#152=DIRECTION('',(0.E0,1.E0,0.E0));
#153=VECTOR('',#152,3.772E0);
#154=CARTESIAN_POINT('',(-4.E-1,-7.49E0,0.E0));
#155=LINE('',#154,#153);
#156=DIRECTION('',(0.E0,1.E0,0.E0));
#157=VECTOR('',#156,3.772E0);
#158=CARTESIAN_POINT('',(4.E-1,-7.49E0,0.E0));
#159=LINE('',#158,#157);
#160=CARTESIAN_POINT('',(0.E0,-3.718E0,0.E0));
#161=DIRECTION('',(0.E0,1.E0,0.E0));
#162=DIRECTION('',(-1.E0,0.E0,0.E0));
#163=AXIS2_PLACEMENT_3D('',#160,#161,#162);
#165=CARTESIAN_POINT('',(0.E0,-3.718E0,0.E0));
#166=DIRECTION('',(0.E0,1.E0,0.E0));
#167=DIRECTION('',(1.E0,0.E0,0.E0));
#168=AXIS2_PLACEMENT_3D('',#165,#166,#167);
#170=CARTESIAN_POINT('',(-1.08E0,6.86E0,0.E0));
#171=CARTESIAN_POINT('',(-1.08E0,1.6E0,0.E0));
#172=VERTEX_POINT('',#170);
#173=VERTEX_POINT('',#171);
#174=CARTESIAN_POINT('',(-1.65E0,0.E0,0.E0));
#175=CARTESIAN_POINT('',(-1.65E0,-7.4E-1,0.E0));
#176=VERTEX_POINT('',#174);
#177=VERTEX_POINT('',#175);
#178=CARTESIAN_POINT('',(1.08E0,6.86E0,0.E0));
#179=CARTESIAN_POINT('',(1.08E0,1.6E0,0.E0));
#180=VERTEX_POINT('',#178);
#181=VERTEX_POINT('',#179);
#182=CARTESIAN_POINT('',(1.65E0,0.E0,0.E0));
#183=CARTESIAN_POINT('',(1.65E0,-7.4E-1,0.E0));
#184=VERTEX_POINT('',#182);
#185=VERTEX_POINT('',#183);
#186=CARTESIAN_POINT('',(-8.05E-1,-7.4E-1,0.E0));
#187=CARTESIAN_POINT('',(8.05E-1,-7.4E-1,0.E0));
#188=VERTEX_POINT('',#186);
#189=VERTEX_POINT('',#187);
#190=CARTESIAN_POINT('',(4.249998491751E-1,-7.49E0,0.E0));
#191=CARTESIAN_POINT('',(-4.249998491751E-1,-7.49E0,0.E0));
#192=VERTEX_POINT('',#190);
#193=VERTEX_POINT('',#191);
#194=CARTESIAN_POINT('',(8.05E-1,-7.11E0,0.E0));
#195=CARTESIAN_POINT('',(-8.05E-1,-7.11E0,0.E0));
#196=VERTEX_POINT('',#194);
#197=VERTEX_POINT('',#195);
#198=CARTESIAN_POINT('',(-1.37E0,1.31E0,0.E0));
#199=VERTEX_POINT('',#198);
#200=CARTESIAN_POINT('',(-1.37E0,0.E0,0.E0));
#201=VERTEX_POINT('',#200);
#202=CARTESIAN_POINT('',(1.37E0,1.31E0,0.E0));
#203=VERTEX_POINT('',#202);
#204=CARTESIAN_POINT('',(1.37E0,0.E0,0.E0));
#205=VERTEX_POINT('',#204);
#206=CARTESIAN_POINT('',(-4.E-1,-3.718E0,0.E0));
#207=CARTESIAN_POINT('',(4.E-1,-3.718E0,0.E0));
#208=VERTEX_POINT('',#206);
#209=VERTEX_POINT('',#207);
#210=CARTESIAN_POINT('',(-4.E-1,-7.49E0,0.E0));
#211=CARTESIAN_POINT('',(4.E-1,-7.49E0,0.E0));
#212=VERTEX_POINT('',#210);
#213=VERTEX_POINT('',#211);
#214=CARTESIAN_POINT('',(0.E0,6.86E0,0.E0));
#215=DIRECTION('',(0.E0,1.E0,0.E0));
#216=DIRECTION('',(1.E0,0.E0,0.E0));
#217=AXIS2_PLACEMENT_3D('',#214,#215,#216);
#218=PLANE('',#217);
#220=ORIENTED_EDGE('',*,*,#219,.F.);
#222=ORIENTED_EDGE('',*,*,#221,.T.);
#223=EDGE_LOOP('',(#220,#222));
#224=FACE_OUTER_BOUND('',#223,.F.);
#225=ADVANCED_FACE('',(#224),#218,.T.);
#226=CARTESIAN_POINT('',(0.E0,-8.2075E0,0.E0));
#227=DIRECTION('',(0.E0,1.E0,0.E0));
#228=DIRECTION('',(1.E0,0.E0,0.E0));
#229=AXIS2_PLACEMENT_3D('',#226,#227,#228);
#230=CYLINDRICAL_SURFACE('',#229,1.08E0);
#232=ORIENTED_EDGE('',*,*,#231,.F.);
#233=ORIENTED_EDGE('',*,*,#219,.T.);
#235=ORIENTED_EDGE('',*,*,#234,.T.);
#237=ORIENTED_EDGE('',*,*,#236,.F.);
#238=EDGE_LOOP('',(#232,#233,#235,#237));
#239=FACE_OUTER_BOUND('',#238,.F.);
#240=ADVANCED_FACE('',(#239),#230,.T.);
#241=CARTESIAN_POINT('',(0.E0,-8.2075E0,0.E0));
#242=DIRECTION('',(0.E0,1.E0,0.E0));
#243=DIRECTION('',(1.E0,0.E0,0.E0));
#244=AXIS2_PLACEMENT_3D('',#241,#242,#243);
#245=CYLINDRICAL_SURFACE('',#244,1.08E0);
#246=ORIENTED_EDGE('',*,*,#231,.T.);
#248=ORIENTED_EDGE('',*,*,#247,.T.);
#249=ORIENTED_EDGE('',*,*,#234,.F.);
#250=ORIENTED_EDGE('',*,*,#221,.F.);
#251=EDGE_LOOP('',(#246,#248,#249,#250));
#252=FACE_OUTER_BOUND('',#251,.F.);
#253=ADVANCED_FACE('',(#252),#245,.T.);
#254=CARTESIAN_POINT('',(0.E0,1.455E0,0.E0));
#255=DIRECTION('',(0.E0,-1.E0,0.E0));
#256=DIRECTION('',(-1.E0,0.E0,0.E0));
#257=AXIS2_PLACEMENT_3D('',#254,#255,#256);
#258=CONICAL_SURFACE('',#257,1.225E0,4.5E1);
#260=ORIENTED_EDGE('',*,*,#259,.T.);
#262=ORIENTED_EDGE('',*,*,#261,.T.);
#264=ORIENTED_EDGE('',*,*,#263,.F.);
#265=ORIENTED_EDGE('',*,*,#247,.F.);
#266=EDGE_LOOP('',(#260,#262,#264,#265));
#267=FACE_OUTER_BOUND('',#266,.F.);
#268=ADVANCED_FACE('',(#267),#258,.T.);
#269=CARTESIAN_POINT('',(0.E0,1.455E0,0.E0));
#270=DIRECTION('',(0.E0,-1.E0,0.E0));
#271=DIRECTION('',(-1.E0,0.E0,0.E0));
#272=AXIS2_PLACEMENT_3D('',#269,#270,#271);
#273=CONICAL_SURFACE('',#272,1.225E0,4.5E1);
#274=ORIENTED_EDGE('',*,*,#259,.F.);
#275=ORIENTED_EDGE('',*,*,#236,.T.);
#276=ORIENTED_EDGE('',*,*,#263,.T.);
#278=ORIENTED_EDGE('',*,*,#277,.F.);
#279=EDGE_LOOP('',(#274,#275,#276,#278));
#280=FACE_OUTER_BOUND('',#279,.F.);
#281=ADVANCED_FACE('',(#280),#273,.T.);
#282=CARTESIAN_POINT('',(0.E0,-8.2075E0,0.E0));
#283=DIRECTION('',(0.E0,1.E0,0.E0));
#284=DIRECTION('',(1.E0,0.E0,0.E0));
#285=AXIS2_PLACEMENT_3D('',#282,#283,#284);
#286=CYLINDRICAL_SURFACE('',#285,1.37E0);
#288=ORIENTED_EDGE('',*,*,#287,.F.);
#289=ORIENTED_EDGE('',*,*,#277,.T.);
#291=ORIENTED_EDGE('',*,*,#290,.T.);
#293=ORIENTED_EDGE('',*,*,#292,.F.);
#294=EDGE_LOOP('',(#288,#289,#291,#293));
#295=FACE_OUTER_BOUND('',#294,.F.);
#296=ADVANCED_FACE('',(#295),#286,.T.);
#297=CARTESIAN_POINT('',(0.E0,-8.2075E0,0.E0));
#298=DIRECTION('',(0.E0,1.E0,0.E0));
#299=DIRECTION('',(1.E0,0.E0,0.E0));
#300=AXIS2_PLACEMENT_3D('',#297,#298,#299);
#301=CYLINDRICAL_SURFACE('',#300,1.37E0);
#302=ORIENTED_EDGE('',*,*,#287,.T.);
#304=ORIENTED_EDGE('',*,*,#303,.T.);
#305=ORIENTED_EDGE('',*,*,#290,.F.);
#306=ORIENTED_EDGE('',*,*,#261,.F.);
#307=EDGE_LOOP('',(#302,#304,#305,#306));
#308=FACE_OUTER_BOUND('',#307,.F.);
#309=ADVANCED_FACE('',(#308),#301,.T.);
#310=CARTESIAN_POINT('',(0.E0,0.E0,0.E0));
#311=DIRECTION('',(0.E0,1.E0,0.E0));
#312=DIRECTION('',(1.E0,0.E0,0.E0));
#313=AXIS2_PLACEMENT_3D('',#310,#311,#312);
#314=PLANE('',#313);
#316=ORIENTED_EDGE('',*,*,#315,.F.);
#318=ORIENTED_EDGE('',*,*,#317,.T.);
#319=EDGE_LOOP('',(#316,#318));
#320=FACE_OUTER_BOUND('',#319,.F.);
#321=ORIENTED_EDGE('',*,*,#303,.F.);
#322=ORIENTED_EDGE('',*,*,#292,.T.);
#323=EDGE_LOOP('',(#321,#322));
#324=FACE_BOUND('',#323,.F.);
#325=ADVANCED_FACE('',(#320,#324),#314,.T.);
#326=CARTESIAN_POINT('',(0.E0,-8.2075E0,0.E0));
#327=DIRECTION('',(0.E0,1.E0,0.E0));
#328=DIRECTION('',(1.E0,0.E0,0.E0));
#329=AXIS2_PLACEMENT_3D('',#326,#327,#328);
#330=CYLINDRICAL_SURFACE('',#329,1.65E0);
#332=ORIENTED_EDGE('',*,*,#331,.F.);
#333=ORIENTED_EDGE('',*,*,#315,.T.);
#335=ORIENTED_EDGE('',*,*,#334,.T.);
#337=ORIENTED_EDGE('',*,*,#336,.F.);
#338=EDGE_LOOP('',(#332,#333,#335,#337));
#339=FACE_OUTER_BOUND('',#338,.F.);
#340=ADVANCED_FACE('',(#339),#330,.T.);
#341=CARTESIAN_POINT('',(0.E0,-8.2075E0,0.E0));
#342=DIRECTION('',(0.E0,1.E0,0.E0));
#343=DIRECTION('',(1.E0,0.E0,0.E0));
#344=AXIS2_PLACEMENT_3D('',#341,#342,#343);
#345=CYLINDRICAL_SURFACE('',#344,1.65E0);
#346=ORIENTED_EDGE('',*,*,#331,.T.);
#348=ORIENTED_EDGE('',*,*,#347,.T.);
#349=ORIENTED_EDGE('',*,*,#334,.F.);
#350=ORIENTED_EDGE('',*,*,#317,.F.);
#351=EDGE_LOOP('',(#346,#348,#349,#350));
#352=FACE_OUTER_BOUND('',#351,.F.);
#353=ADVANCED_FACE('',(#352),#345,.T.);
#354=CARTESIAN_POINT('',(0.E0,-7.4E-1,0.E0));
#355=DIRECTION('',(0.E0,1.E0,0.E0));
#356=DIRECTION('',(1.E0,0.E0,0.E0));
#357=AXIS2_PLACEMENT_3D('',#354,#355,#356);
#358=PLANE('',#357);
#359=ORIENTED_EDGE('',*,*,#347,.F.);
#360=ORIENTED_EDGE('',*,*,#336,.T.);
#361=EDGE_LOOP('',(#359,#360));
#362=FACE_OUTER_BOUND('',#361,.F.);
#364=ORIENTED_EDGE('',*,*,#363,.F.);
#366=ORIENTED_EDGE('',*,*,#365,.T.);
#367=EDGE_LOOP('',(#364,#366));
#368=FACE_BOUND('',#367,.F.);
#369=ADVANCED_FACE('',(#362,#368),#358,.F.);
#370=CARTESIAN_POINT('',(0.E0,-8.2075E0,0.E0));
#371=DIRECTION('',(0.E0,1.E0,0.E0));
#372=DIRECTION('',(1.E0,0.E0,0.E0));
#373=AXIS2_PLACEMENT_3D('',#370,#371,#372);
#374=CYLINDRICAL_SURFACE('',#373,8.05E-1);
#376=ORIENTED_EDGE('',*,*,#375,.T.);
#378=ORIENTED_EDGE('',*,*,#377,.F.);
#379=ORIENTED_EDGE('',*,*,#363,.T.);
#381=ORIENTED_EDGE('',*,*,#380,.T.);
#382=EDGE_LOOP('',(#376,#378,#379,#381));
#383=FACE_OUTER_BOUND('',#382,.F.);
#384=ADVANCED_FACE('',(#383),#374,.T.);
#385=CARTESIAN_POINT('',(0.E0,-7.11E0,0.E0));
#386=DIRECTION('',(0.E0,1.E0,0.E0));
#387=DIRECTION('',(9.990728851455E-1,0.E0,-4.305078590478E-2));
#388=AXIS2_PLACEMENT_3D('',#385,#386,#387);
#389=TOROIDAL_SURFACE('',#388,4.25E-1,3.8E-1);
#391=ORIENTED_EDGE('',*,*,#390,.T.);
#393=ORIENTED_EDGE('',*,*,#392,.T.);
#394=ORIENTED_EDGE('',*,*,#375,.F.);
#396=ORIENTED_EDGE('',*,*,#395,.F.);
#397=EDGE_LOOP('',(#391,#393,#394,#396));
#398=FACE_OUTER_BOUND('',#397,.F.);
#399=ADVANCED_FACE('',(#398),#389,.T.);
#400=CARTESIAN_POINT('',(0.E0,-7.49E0,0.E0));
#401=DIRECTION('',(0.E0,1.E0,0.E0));
#402=DIRECTION('',(1.E0,0.E0,0.E0));
#403=AXIS2_PLACEMENT_3D('',#400,#401,#402);
#404=PLANE('',#403);
#405=ORIENTED_EDGE('',*,*,#390,.F.);
#407=ORIENTED_EDGE('',*,*,#406,.F.);
#408=EDGE_LOOP('',(#405,#407));
#409=FACE_OUTER_BOUND('',#408,.F.);
#411=ORIENTED_EDGE('',*,*,#410,.F.);
#413=ORIENTED_EDGE('',*,*,#412,.F.);
#414=EDGE_LOOP('',(#411,#413));
#415=FACE_BOUND('',#414,.F.);
#416=ADVANCED_FACE('',(#409,#415),#404,.F.);
#417=CARTESIAN_POINT('',(0.E0,-7.11E0,0.E0));
#418=DIRECTION('',(0.E0,1.E0,0.E0));
#419=DIRECTION('',(-9.990728851455E-1,0.E0,4.305078590478E-2));
#420=AXIS2_PLACEMENT_3D('',#417,#418,#419);
#421=TOROIDAL_SURFACE('',#420,4.25E-1,3.8E-1);
#422=ORIENTED_EDGE('',*,*,#406,.T.);
#423=ORIENTED_EDGE('',*,*,#395,.T.);
#425=ORIENTED_EDGE('',*,*,#424,.F.);
#426=ORIENTED_EDGE('',*,*,#392,.F.);
#427=EDGE_LOOP('',(#422,#423,#425,#426));
#428=FACE_OUTER_BOUND('',#427,.F.);
#429=ADVANCED_FACE('',(#428),#421,.T.);
#430=CARTESIAN_POINT('',(0.E0,-8.2075E0,0.E0));
#431=DIRECTION('',(0.E0,1.E0,0.E0));
#432=DIRECTION('',(1.E0,0.E0,0.E0));
#433=AXIS2_PLACEMENT_3D('',#430,#431,#432);
#434=CYLINDRICAL_SURFACE('',#433,8.05E-1);
#435=ORIENTED_EDGE('',*,*,#424,.T.);
#436=ORIENTED_EDGE('',*,*,#380,.F.);
#437=ORIENTED_EDGE('',*,*,#365,.F.);
#438=ORIENTED_EDGE('',*,*,#377,.T.);
#439=EDGE_LOOP('',(#435,#436,#437,#438));
#440=FACE_OUTER_BOUND('',#439,.F.);
#441=ADVANCED_FACE('',(#440),#434,.T.);
#442=CARTESIAN_POINT('',(0.E0,-7.49E0,0.E0));
#443=DIRECTION('',(0.E0,1.E0,0.E0));
#444=DIRECTION('',(-1.E0,0.E0,0.E0));
#445=AXIS2_PLACEMENT_3D('',#442,#443,#444);
#446=CYLINDRICAL_SURFACE('',#445,4.E-1);
#447=ORIENTED_EDGE('',*,*,#410,.T.);
#449=ORIENTED_EDGE('',*,*,#448,.T.);
#451=ORIENTED_EDGE('',*,*,#450,.F.);
#453=ORIENTED_EDGE('',*,*,#452,.F.);
#454=EDGE_LOOP('',(#447,#449,#451,#453));
#455=FACE_OUTER_BOUND('',#454,.F.);
#456=ADVANCED_FACE('',(#455),#446,.F.);
#457=CARTESIAN_POINT('',(0.E0,-7.49E0,0.E0));
#458=DIRECTION('',(0.E0,1.E0,0.E0));
#459=DIRECTION('',(-1.E0,0.E0,0.E0));
#460=AXIS2_PLACEMENT_3D('',#457,#458,#459);
#461=CYLINDRICAL_SURFACE('',#460,4.E-1);
#462=ORIENTED_EDGE('',*,*,#412,.T.);
#463=ORIENTED_EDGE('',*,*,#452,.T.);
#465=ORIENTED_EDGE('',*,*,#464,.F.);
#466=ORIENTED_EDGE('',*,*,#448,.F.);
#467=EDGE_LOOP('',(#462,#463,#465,#466));
#468=FACE_OUTER_BOUND('',#467,.F.);
#469=ADVANCED_FACE('',(#468),#461,.F.);
#470=CARTESIAN_POINT('',(0.E0,-3.718E0,0.E0));
#471=DIRECTION('',(0.E0,1.E0,0.E0));
#472=DIRECTION('',(-1.E0,0.E0,0.E0));
#473=AXIS2_PLACEMENT_3D('',#470,#471,#472);
#474=PLANE('',#473);
#475=ORIENTED_EDGE('',*,*,#450,.T.);
#476=ORIENTED_EDGE('',*,*,#464,.T.);
#477=EDGE_LOOP('',(#475,#476));
#478=FACE_OUTER_BOUND('',#477,.F.);
#479=ADVANCED_FACE('',(#478),#474,.F.);
#480=CLOSED_SHELL('',(#225,#240,#253,#268,#281,#296,#309,#325,#340,#353,#369,
#384,#399,#416,#429,#441,#456,#469,#479));
#481=MANIFOLD_SOLID_BREP('',#480);
#483=DIMENSIONAL_EXPONENTS(0.E0,0.E0,0.E0,0.E0,0.E0,0.E0,0.E0);
#485=PLANE_ANGLE_MEASURE_WITH_UNIT(PLANE_ANGLE_MEASURE(1.745329251994E-2),#484);
#486=(CONVERSION_BASED_UNIT('DEGREE',#485)NAMED_UNIT(*)PLANE_ANGLE_UNIT());
#488=UNCERTAINTY_MEASURE_WITH_UNIT(LENGTH_MEASURE(1.587036780623E-3),#482,
'closure',
'Maximum model space distance between geometric entities at asserted connectivities');
#489=(GEOMETRIC_REPRESENTATION_CONTEXT(3)GLOBAL_UNCERTAINTY_ASSIGNED_CONTEXT((
#488))GLOBAL_UNIT_ASSIGNED_CONTEXT((#482,#486,#487))REPRESENTATION_CONTEXT
('ID1','3'));
#491=APPLICATION_CONTEXT(
'CONFIGURATION CONTROLLED 3D DESIGNS OF MECHANICAL PARTS AND ASSEMBLIES');
#492=APPLICATION_PROTOCOL_DEFINITION('international standard',
'config_control_design',1994,#491);
#493=DESIGN_CONTEXT('',#491,'design');
#494=MECHANICAL_CONTEXT('',#491,'mechanical');
#495=PRODUCT('001714_500_02','001714_500_02','NOT SPECIFIED',(#494));
#496=PRODUCT_DEFINITION_FORMATION_WITH_SPECIFIED_SOURCE('1','LAST_VERSION',#495,
.MADE.);
#500=PRODUCT_CATEGORY('part','');
#501=PRODUCT_RELATED_PRODUCT_CATEGORY('detail','',(#495));
#502=PRODUCT_CATEGORY_RELATIONSHIP('','',#500,#501);
#503=SECURITY_CLASSIFICATION_LEVEL('unclassified');
#504=SECURITY_CLASSIFICATION('','',#503);
#505=CC_DESIGN_SECURITY_CLASSIFICATION(#504,(#496));
#506=APPROVAL_STATUS('approved');
#507=APPROVAL(#506,'');
#508=CC_DESIGN_APPROVAL(#507,(#504,#496,#497));
#509=CALENDAR_DATE(120,31,1);
#510=COORDINATED_UNIVERSAL_TIME_OFFSET(1,0,.AHEAD.);
#511=LOCAL_TIME(10,46,1.4E1,#510);
#512=DATE_AND_TIME(#509,#511);
#513=APPROVAL_DATE_TIME(#512,#507);
#514=DATE_TIME_ROLE('creation_date');
#515=CC_DESIGN_DATE_AND_TIME_ASSIGNMENT(#512,#514,(#497));
#516=DATE_TIME_ROLE('classification_date');
#517=CC_DESIGN_DATE_AND_TIME_ASSIGNMENT(#512,#516,(#504));
#518=PERSON('UNSPECIFIED','UNSPECIFIED',$,$,$,$);
#519=ORGANIZATION('UNSPECIFIED','UNSPECIFIED','UNSPECIFIED');
#520=PERSON_AND_ORGANIZATION(#518,#519);
#521=APPROVAL_ROLE('approver');
#522=APPROVAL_PERSON_ORGANIZATION(#520,#507,#521);
#523=PERSON_AND_ORGANIZATION_ROLE('creator');
#524=CC_DESIGN_PERSON_AND_ORGANIZATION_ASSIGNMENT(#520,#523,(#496,#497));
#525=PERSON_AND_ORGANIZATION_ROLE('design_supplier');
#526=CC_DESIGN_PERSON_AND_ORGANIZATION_ASSIGNMENT(#520,#525,(#496));
#527=PERSON_AND_ORGANIZATION_ROLE('classification_officer');
#528=CC_DESIGN_PERSON_AND_ORGANIZATION_ASSIGNMENT(#520,#527,(#504));
#529=PERSON_AND_ORGANIZATION_ROLE('design_owner');
#530=CC_DESIGN_PERSON_AND_ORGANIZATION_ASSIGNMENT(#520,#529,(#495));
#6=CIRCLE('',#5,1.08E0);
#19=CIRCLE('',#18,1.08E0);
#32=CIRCLE('',#31,1.08E0);
#37=CIRCLE('',#36,1.08E0);
#42=CIRCLE('',#41,1.37E0);
#55=CIRCLE('',#54,1.37E0);
#60=CIRCLE('',#59,1.37E0);
#65=CIRCLE('',#64,1.37E0);
#70=CIRCLE('',#69,1.65E0);
#83=CIRCLE('',#82,1.65E0);
#88=CIRCLE('',#87,1.65E0);
#93=CIRCLE('',#92,1.65E0);
#98=CIRCLE('',#97,8.05E-1);
#103=CIRCLE('',#102,4.249998491751E-1);
#108=CIRCLE('',#107,8.05E-1);
#113=CIRCLE('',#112,3.8E-1);
#118=CIRCLE('',#117,4.E-1);
#123=CIRCLE('',#122,4.E-1);
#128=CIRCLE('',#127,4.249998491751E-1);
#133=CIRCLE('',#132,8.05E-1);
#138=CIRCLE('',#137,3.8E-1);
#147=CIRCLE('',#146,8.05E-1);
#164=CIRCLE('',#163,4.E-1);
#169=CIRCLE('',#168,4.E-1);
#219=EDGE_CURVE('',#172,#180,#6,.T.);
#221=EDGE_CURVE('',#172,#180,#19,.T.);
#231=EDGE_CURVE('',#172,#173,#10,.T.);
#234=EDGE_CURVE('',#180,#181,#14,.T.);
#236=EDGE_CURVE('',#173,#181,#37,.T.);
#247=EDGE_CURVE('',#173,#181,#32,.T.);
#259=EDGE_CURVE('',#173,#199,#23,.T.);
#261=EDGE_CURVE('',#199,#203,#55,.T.);
#263=EDGE_CURVE('',#181,#203,#27,.T.);
#277=EDGE_CURVE('',#199,#203,#42,.T.);
#287=EDGE_CURVE('',#199,#201,#46,.T.);
#290=EDGE_CURVE('',#203,#205,#50,.T.);
#292=EDGE_CURVE('',#201,#205,#65,.T.);
#303=EDGE_CURVE('',#201,#205,#60,.T.);
#315=EDGE_CURVE('',#176,#184,#70,.T.);
#317=EDGE_CURVE('',#176,#184,#83,.T.);
#331=EDGE_CURVE('',#176,#177,#74,.T.);
#334=EDGE_CURVE('',#184,#185,#78,.T.);
#336=EDGE_CURVE('',#177,#185,#93,.T.);
#347=EDGE_CURVE('',#177,#185,#88,.T.);
#363=EDGE_CURVE('',#188,#189,#98,.T.);
#365=EDGE_CURVE('',#188,#189,#147,.T.);
#375=EDGE_CURVE('',#196,#197,#108,.T.);
#377=EDGE_CURVE('',#188,#197,#151,.T.);
#380=EDGE_CURVE('',#189,#196,#142,.T.);
#390=EDGE_CURVE('',#192,#193,#103,.T.);
#392=EDGE_CURVE('',#193,#197,#138,.T.);
#395=EDGE_CURVE('',#192,#196,#113,.T.);
#406=EDGE_CURVE('',#193,#192,#128,.T.);
#410=EDGE_CURVE('',#212,#213,#118,.T.);
#412=EDGE_CURVE('',#213,#212,#123,.T.);
#424=EDGE_CURVE('',#197,#196,#133,.T.);
#448=EDGE_CURVE('',#213,#209,#159,.T.);
#450=EDGE_CURVE('',#208,#209,#164,.T.);
#452=EDGE_CURVE('',#212,#208,#155,.T.);
#464=EDGE_CURVE('',#209,#208,#169,.T.);
#482=(LENGTH_UNIT()NAMED_UNIT(*)SI_UNIT(.MILLI.,.METRE.));
#484=(NAMED_UNIT(*)PLANE_ANGLE_UNIT()SI_UNIT($,.RADIAN.));
#487=(NAMED_UNIT(*)SI_UNIT($,.STERADIAN.)SOLID_ANGLE_UNIT());
#490=ADVANCED_BREP_SHAPE_REPRESENTATION('',(#481),#489);
#497=PRODUCT_DEFINITION('design','',#496,#493);
#498=PRODUCT_DEFINITION_SHAPE('','SHAPE FOR 001714_500_02.',#497);
#499=SHAPE_DEFINITION_REPRESENTATION(#498,#490);
ENDSEC;
END-ISO-10303-21;
